yo, first tab and all so no hatin'


G|-----------------------------------------------------------------|
D|------------------------*drum------------------------------------|
A|--------------------------fill*------4-7-----4-7-----4-7-----4-7-|
E|---------------------------------5-5-----5-5-----5-5-----5-5-----|


G|-----------------------------------------------------------------|
D|-----------------------------------------------------------------|
A|-----4-7-----4-7-----4-7-----4-7-5-5-----5-5-----5-5-----5-5-----|
E|-5-5-----5-5-----5-5-----5-5---------7-5-----7-5-----7-5-----7-5-|


G|-----------------------------------------------------------------|
D|------------------------------------------------------*drum------|
A|-2-----2-4-----4---------4-----4------------------------fill*----|
E|-----------------2-----2---------2---0h2-2----0-0-0--------------|

G|-----------------------------------------------------------------|
D|-----------------------------------------------------------------|
A|-----4-7-----4-7-----4-7-----4-7-5-5-----5-5-----5-5-----5-5-----|
E|-5-5-----5-5-----5-5-----5-5---------7-5-----7-5-----7-5-----7-5-|


G|-----------------------------------------------------------------|
D|------------------------------------------------------*drum------|
A|-2-----2-4-----4---------4-----4---------9--8--7-7-7----fill*----|
E|-----------------2-----2---------2-----2-------------------------|


G|-----------------------------------------------------------------|
D|-----------------------------------------------------------------|
A|-2-----2-4-----4-------0-2---2---5-------4-----------------------|
E|-----------------2---2---------------------------2-----0h2-2-2---|


G|-----------------------------------------------------------------|
D|-----------------------------------------------------------------|
A|-2-----2-4-----4-------0-2---2---5-----5-4-----------------------|
E|-----------------2---2---------------------------2-----0h2-2-----|


G|-----------------------------------------------------------------------------------|
D|-----------------------------------------------------------------------------------|
A|-------------------------------------------------------4-7-----4-7-----4-7-----4-7-|
E|-0-0-0-0-0-0-0-0-2---2---0-2-----0-0-0-0-0-0-0-0-0-5-5-----5-5-----5-5-----5-5-----|


G|-----------------------------------------------------------------|
D|-----------------------------------------------------------------|
A|-----4-7-----4-7-----4-7-----4-7-5-5-----5-5-----5-5-----5-5-----|
E|-5-5-----5-5-----5-5-----5-5---------7-5-----7-5-----7-5-----7-5-|


G|-----------------------------------------------------------------|
D|-----------------------------------------------------------------|
A|-2-----2-4-----4---------4-----4----------------------*silence*--|
E|-----------------2-----2---------2---0h2-2----0-0-0--------------|

G|-----------------------------------------------------------------|
D|-----------------------------------------------------------------|
A|-----4-7-----4-7-----4-7-----4-7-5-5-----5-5-----5-5-----5-5-----|
E|-5-5-----5-5-----5-5-----5-5---------7-5-----7-5-----7-5-----7-5-|


G|-----------------------------------------------------------------|
D|------------------------------------------------------*drum------|
A|-2-----2-4-----4---------4-----4---------9--8--7-7-7----fill*----|
E|-----------------2-----2---------2-----2-------------------------|


G|-----------------------------------------------------------------|
D|-----------------------------------------------------------------|
A|-2-----2-4-----4-------0-2---2---5-------4-----------------------|
E|-----------------2---2---------------------------2-----0h2-2-2---|


G|-----------------------------------------------------------------|
D|-----------------------------------------------------------------|
A|-2-----2-4-----4-------0-2---2---5-----5-4-----------------------|
E|-----------------2---2---------------------------2-----0h2-2-----|


G|-----------------------------------------------------------------|
D|-----------------------------------------------------------------|
A|-----------------------------------------------------------------|
E|-0-0-0-0-0-0-0-0-2---2---0-2-----0-0-0-0-0-0-0-0-0-2---2---0-2---|


G|-----------------------------------------------------------------|
D|-----------------------------------------------------------------|
A|-----------------------------------------------------------------|
E|-0-0-0-0-0-0-0-0-2---2---0-2-----0-0-0-0-0-0-0-0-0-2-------------|
Show more