• Song:

    Above The Winter Moonlight

  • Artist:

    Dragonforce

  • Album:

    Sonic Firestorm

alright I always loved this song and always wanted to play the intro but noone
tabbed it so I figured I would its pretty simple just listen to the song to get
the right tempo

STANDARD TUNING:E A D G B E

e-13----------13-----------------------------------------------------------|
b----15----15----13-------------11----------11--/15--13-11--13-11-10-------|
g-------15----------14----14-15----12----12--------------------------------|
d----------------------15-------------13-----------------------------------|
a--------------------------------------------------------------------------|
e--------------------------------------------------------------------------|


e----------------------13~-15-17-18-15----15-18-20-18-17---20--------------|
b-11----11-13-15-16-13-----------------16----------------18----------------|
g----10--------------------------------------------------------------------|
d--------------------------------------------------------------------------|
a--------------------------------------------------------------------------|
e--------------------------------------------------------------------------|



this time its played with more effects and pinch harmonics and ends with a bend


e-13----------13-----------------------------------------------------------|
b----15----15----13-------------11----------11--/15--13-11--13-11-10-------|
g-------15----------14----14-15----12----12--------------------------------|
d----------------------15-------------13-----------------------------------|
a--------------------------------------------------------------------------|
e--------------------------------------------------------------------------|


e----------------------13~-15-17-18-15----15-18-20-18-17---20--20b~~~------|
b-11----11-13-15-16-13-----------------16----------------18----------------|
g----10--------------------------------------------------------------------|
d--------------------------------------------------------------------------|
a--------------------------------------------------------------------------|
e--------------------------------------------------------------------------|
Show more