• Song:

    My Spirit Will Go On

  • Artist:

    Dragonforce

  • Album:

    Sonic Firestorm

#----------------------------------PLEASE NOTE---------------------------------#
#This file is the author's own work and represents their interpretation of the #
#song. You may only use this file for private study, scholarship, or research. #
#------------------------------------------------------------------------------#

MY SPIRIT WILL GO ON (Bassline)
As recorded by DragonForce
(From the 2004 Album SONIC FIRESTORM)

Transcribed by Knightrider of Doom & Samurai Sweetie
	

Words by ZP Threart and Sam Totman Music by Sam Totman

Gtr I (E A D G) - 'Bass'
Gtr II (E A D G B E) - 'Keyboards'
Gtr III (E A D G B E) - 'More Keyboards'

 Intro
  Q=200
 4/4
  Gtr II
                ~~~~~~~~~~~~~~~~~~~~~~~~~~~~~~~~~~~~~~~~~~~~~~~~~~
  Wx8           W
|------------|--7pb12============================================|
|------------|-17pb22============================================|
|------------|---------------------------------------------------|
|------------|---------------------------------------------------|
|------------|---------------------------------------------------|
|------------|---------------------------------------------------|
|
| Gtr III
| Wx8           E       S  S  S  S  S  S  S  S  S  S  S  S  S  S
|------------|---------26-25-24-23-22-21-20-19-18-17-16-15-14-13-|
|------------|---------------------------------------------------|
|------------|---------------------------------------------------|
|------------|---------------------------------------------------|
|------------|---------------------------------------------------|
|------------|---------------------------------------------------|


 ~~~~~~~
   +W
|--(7)r=================================|
|-(17)r=================================|
|---------------------------------------|
|---------------------------------------|
|---------------------------------------|
|---------------------------------------|
|
|   S   S  S S S S S S S S S S S S S S
|--12--11-10-9-8-7-6-5-4-3-2-1-0--------|
|--------------------------------4-3-2--|
|---------------------------------------|
|---------------------------------------|
|---------------------------------------|
|---------------------------------------|


    ~~~~~~~~~~~~~~~~~~~~~~~~~~~~~~~~~~~~~~~~~~~~~~
    W
|---7--------------------------------------------|
|-(17)-------------------------------------------|
|------------------------------------------------|
|------------------------------------------------|
|------------------------------------------------|
|------------------------------------------------|
|
|  +E   S  S  S  S  S  S  S  S  S  S  S  S  S  S
|------27-26-25-24-23-22-21-20-19-18-17-16-15-14-|
|--(2)-------------------------------------------|
|------------------------------------------------|
|------------------------------------------------|
|------------------------------------------------|
|------------------------------------------------|


 ~~~~~~
   +W
|--(7)--------------------------------|
|-(17)--------------------------------|
|-------------------------------------|
|-------------------------------------|
|-------------------------------------|
|-------------------------------------|
|
|   S   S  S  S S S S S S S S S S S E
|--13--12-11-10-9-8-7-6-5-4-3-2-1-0---|
|-----------------------------------4-|
|-------------------------------------|
|-------------------------------------|
|-------------------------------------|
|-------------------------------------|


    ~~~~~~~~~~~~~~~~~~~~~~~~~~~~~~~~~~~~~~~~~~~~~~
   +W
|--(7)-------------------------------------------|
|-(17)-------------------------------------------|
|------------------------------------------------|
|------------------------------------------------|
|------------------------------------------------|
|------------------------------------------------|
|
|   E   S  S  S  S  S  S  S  S  S  S  S  S  S  S
|------27-26-25-24-23-22-21-20-19-18-17-16-15-14-|
|------------------------------------------------|
|------------------------------------------------|
|------------------------------------------------|
|------------------------------------------------|
|------------------------------------------------|


 ~~~~~~
   +W
|--(7)-----------------------------------|
|-(17)-----------------------------------|
|----------------------------------------|
|----------------------------------------|
|----------------------------------------|
|----------------------------------------|
|
|   S   S  S  S S S S S S S S S S S S S
|--13--12-11-10-9-8-7-6-5-4-3-2-1-0------|
|-----------------------------------4-3--|
|----------------------------------------|
|----------------------------------------|
|----------------------------------------|
|----------------------------------------|


    ~~~~~~~~~~~~~~~~~~~~~~~~~~~~~~~~~~~~~~~~
   +W                                   +W
|--(7)-------------------------------|--(7)-------------------|
|-(17)-------------------------------|-(17)-------------------|
|------------------------------------|------------------------|
|------------------------------------|------------------------|
|------------------------------------|------------------------|
|------------------------------------|------------------------|
|
|   S  S S S S S S S S S S S S S S S     S  S S S S E. +H
|------------------------------------|------------------------|
|---2--1-0---------------------------|------------------------|
|----------3-2-1-0-------------------|------------------------|
|------------------4-3-2-1-0---------|------------------------|
|----------------------------4-3-2-1-|---0--------------------|
|------------------------------------|------4-3-2-1-0--(0)----|


  Gtr I
  E E E E S S E S S E    E E E E S S E S S E
|---------------------|----------------------|
|---------------------|----------------------|
|---------------------|----------------------|
|-0-0-0-0-0-0-0-0-0-0-|--0-0-0-0-0-0-0-0-0-0-|
|
| Gtr II
| W                      W
|---------------------|----------------------|
|---------------------|----------------------|
|-9-------------------|-11-------------------|
|-5-------------------|--7-------------------|
|-7-------------------|--9-------------------|
|---------------------|----------------------|


   S S E E E S S E S S E    S S E E E S S E S S E
|------------------------|------------------------|
|------------------------|------------------------|
|------------------------|------------------------|
|--0-0-0-0-0-0-0-0-0-0-0-|--0-0-0-0-0-0-0-0-0-0-0-|
|
|  W                        W
|------------------------|------------------------|
|------------------------|------------------------|
|-12---------------------|-11---------------------|
|--9---------------------|--7---------------------|
|-10---------------------|--9---------------------|
|------------------------|------------------------|


  S S E E E S S E S S E    S S E E E S S E S S E
|-----------------------|------------------------|
|-----------------------|------------------------|
|-----------------------|------------------------|
|-0-0-0-0-0-0-0-0-0-0-0-|--0-0-0-0-0-0-0-0-0-0-0-|
|
| W                        W
|-----------------------|------------------------|
|-----------------------|------------------------|
|-9---------------------|-11---------------------|
|-5---------------------|--7---------------------|
|-7---------------------|--9---------------------|
|-----------------------|------------------------|


   S S E E E S S E S S E    S S E E E S S E S S E
|------------------------|------------------------|
|------------------------|------------------------|
|------------------------|------------------------|
|--0-0-0-0-0-0-0-0-0-0-0-|--0-0-0-0-0-0-0-0-0-0-0-|
|
|  W                        W
|------------------------|------------------------|
|------------------------|------------------------|
|-12---------------------|-11---------------------|
|--9---------------------|--7---------------------|
|-10---------------------|--9---------------------|
|------------------------|------------------------|


  S S E E S S E E S S E    S S E E S S E E S S E
|-----------------------|------------------------|
|-----------------------|------------------------|
|-----------------------|------------------------|
|-0-0-0-0-0-0-0-0-0-0-0-|--0-0-0-0-0-0-0-0-0-0-0-|
|
| W                        W
|-----------------------|------------------------|
|-----------------------|------------------------|
|-9---------------------|-11---------------------|
|-5---------------------|--7---------------------|
|-7---------------------|--9---------------------|
|-----------------------|------------------------|


   S S E E S S E E S S E    S S E E S S E E S S E
|------------------------|------------------------|
|------------------------|------------------------|
|------------------------|------------------------|
|--0-0-0-0-0-0-0-0-0-0-0-|--0-0-0-0-0-0-0-0-0-0-0-|
|
|  W                        W
|------------------------|------------------------|
|--8---------------------|-10---------------------|
|--9---------------------|-11---------------------|
|--9---------------------|--7---------------------|
|-10---------------------|--9---------------------|
|------------------------|------------------------|


  S S E E S S E E S S E    S S E E S S E E S S E
|-----------------------|------------------------|
|-----------------------|------------------------|
|-----------------------|------------------------|
|-0-0-0-0-0-0-0-0-0-0-0-|--0-0-0-0-0-0-0-0-0-0-0-|
|
| W                        W
|-----------------------|------------------------|
|-8---------------------|-10---------------------|
|-9---------------------|-11---------------------|
|-5---------------------|--7---------------------|
|-7---------------------|--9---------------------|
|-----------------------|------------------------|


   S S E E S S E E S S E    S S E E S S E E S S E
|------------------------|------------------------|
|------------------------|------------------------|
|------------------------|------------------------|
|--0-0-0-0-0-0-0-0-0-0-0-|--0-0-0-0-0-0-0-0-0-0-0-|
|
|  W                        W
|------------------------|------------------------|
|--8---------------------|-10---------------------|
|--9---------------------|-11---------------------|
|--9---------------------|--7---------------------|
|-10---------------------|--9---------------------|
|------------------------|------------------------|


   Q  Q  Q  Q      Q   Q  Q  Q
|--------------|----------------|
|--------------|----------------|
|--2--2--2--2--|---2---2--3--5--|
|--------------|----------------|
|
|  >
|  W              +W
|--------------|----------------|
|-12-----------|-(12)-----------|
|-11-----------|-(11)-----------|
|--9-----------|--(9)-----------|
|--9-----------|--(9)-----------|
|--------------|----------------|


  E S S S S S S S S S S S S S S    E  S S S S E S S S S S S S S
|-------------------------------|-------------------------------|
|-------------------------------|-------------------------------|
|-------------------------------|-------------------------------|
|-0-0-0-0-0-0-0-0-0-0-0-0-0-0-0-|--0--0-0-0-0-0-0-0-0-0-0-0-0-0-|
|
| W                               +W
|-------------------------------|-------------------------------|
|-------------------------------|-------------------------------|
|-9-----------------------------|-(9)---------------------------|
|-9-----------------------------|-(9)---------------------------|
|-7-----------------------------|-(7)---------------------------|
|-------------------------------|-------------------------------|


  E S S E E E E E E    E  S S E E E E E E   E S S S S S S S S S S S S S S
|-------------------|---------------------|-------------------------------|
|-------------------|---------------------|-------------------------------|
|-------------------|---------------------|-5-5-5-5-5-5-5-5-5-5-5-5-5-5-5-|
|-0-0-0-0-0-0-0-0-0-|--0--0-0-0-0-0-0-0-0-|-------------------------------|
|
| W                   +W                    W
|-------------------|---------------------|-------------------------------|
|-------------------|---------------------|-------------------------------|
|-9-----------------|-(9)-----------------|-7-----------------------------|
|-9-----------------|-(9)-----------------|-7-----------------------------|
|-7-----------------|-(7)-----------------|-5-----------------------------|
|-------------------|---------------------|-------------------------------|


   E  S S S S E S S S S S S S S   E S S E E E E E E    E  S S E E E E E E
|-------------------------------|-------------------|----------------------|
|-------------------------------|-------------------|----------------------|
|--5--5-5-5-5-5-5-5-5-5-5-5-5-5-|-3-3-3-3-3-3-3-3-3-|--3--3-3-3-3-3-3-3----|
|-------------------------------|-------------------|-------------------2--|
|
| +W                              W                   +W
|-------------------------------|-------------------|----------------------|
|-------------------------------|-------------------|----------------------|
|-(7)---------------------------|-5-----------------|-(5)------------------|
|-(7)---------------------------|-5-----------------|-(5)------------------|
|-(5)---------------------------|-3-----------------|-(3)------------------|
|-------------------------------|-------------------|----------------------|


  E S S S S S S S S S S S S S S    E  S S S S E S S S S S S S S
|-------------------------------|-------------------------------|
|-------------------------------|-------------------------------|
|-------------------------------|-------------------------------|
|-0-0-0-0-0-0-0-0-0-0-0-0-0-0-0-|--0--0-0-0-0-0-0-0-0-0-0-0-0-0-|
|
| W                               +W
|-------------------------------|-------------------------------|
|-------------------------------|-------------------------------|
|-9-----------------------------|-(9)---------------------------|
|-9-----------------------------|-(9)---------------------------|
|-7-----------------------------|-(7)---------------------------|
|-------------------------------|-------------------------------|


  E S S E E E E E E    E  S S E E E E E E   E S S S S S S S S S S S S S S
|-------------------|---------------------|-------------------------------|
|-------------------|---------------------|-------------------------------|
|-------------------|---------------------|-5-5-5-5-5-5-5-5-5-5-5-5-5-5-5-|
|-3-3-3-3-3-3-3-3-3-|--3--3-3-3-3-3-3-3-3-|-------------------------------|
|
| W                   +W                    W
|-------------------|---------------------|-------------------------------|
|-8-----------------|-(8)-----------------|-------------------------------|
|-7-----------------|-(7)-----------------|-7-----------------------------|
|-5-----------------|-(5)-----------------|-7-----------------------------|
|-------------------|---------------------|-5-----------------------------|
|-------------------|---------------------|-------------------------------|


   E  S S S S E S S S S S S S S   E S S E E S S E E E
|-------------------------------|---------------------|
|-------------------------------|---------------------|
|--5--5-5-5-5-5-5-5-5-5-5-5-5-5-|-3-3-3-3-3-3-3-3-3-3-|
|-------------------------------|---------------------|
|
| +W                              W
|-------------------------------|---------------------|
|-------------------------------|---------------------|
|-(7)---------------------------|-5-------------------|
|-(7)---------------------------|-5-------------------|
|-(5)---------------------------|-3-------------------|
|-------------------------------|---------------------|


   E  S S E E S S E E E   Q  H.
|-----------------------|----------||
|-----------------------|----------||
|--3--3-3-3-3-3-3-3-3-3-|----------||
|-----------------------|-0--------||
|
| +W                      W
|-----------------------|----------||
|-----------------------|----------||
|-(5)-------------------|----------||
|-(5)-------------------|----------||
|-(3)-------------------|----------||
|-----------------------|----------||


   Verse
    E E E E E E E E   E E E E E E E E   E E E E E E E E   E E E E E E E E
||------------------|-----------------|-----------------|-------1-4-1-----|
||o-----------------|-----------------|-----------------|-----2-------4-2-|
||o-4-4-4-4-4-4-4-4-|-4-4-4-4-4-4-4-4-|-4-4-4-4-4-4-4-4-|-4-4-------------|
||------------------|-----------------|-----------------|-----------------|


  E E E E E E E E   E E E E E E E E   E E E E E E E E   E E E E E E E E
|-----------------|-----------------|-----------------|------------------|
|-----------------|-----------------|-7-7-7-7-7-7-6-7-|-9-9-9-9-9-9-7-6--|
|-4-4-4-4-4-4-4-4-|-4-4-4-4-4-4-4-4-|-----------------|------------------|
|-----------------|-----------------|-----------------|------------------|


  E E E E E E E E   E E E E E E E E   E E E E E E E E   E E E E E E E E
|-----------------|-----------------|-----------------|------------------|
|-----------------|-------------4-6-|-----------------|-----4-6----------|
|-4-4-4-4-4-4-4-4-|-4-4-4-4-4-4-----|-4-4-4-4-4-4-4-4-|-4-4-----4-4-7-4--|
|-----------------|-----------------|-----------------|------------------|


  E E E E E E E E   E E E E E E E E   E E E E E E E E   E E E E E E E E
|-----------------|-----------------|-----------------|------------------|
|-----------------|-----------------|-7-7-7-7-7-7-6-7-|-9-9-9-9-9-9-7-6--|
|-4-4-4-4-4-4-4-4-|-4-4-4-4-4-4-4-4-|-----------------|------------------|
|-----------------|-----------------|-----------------|------------------|


  E E S S S S S S S S S S S S   S S S S S S S S S S S S S S S S
|-----------------------------|----------------------------------|
|-----------------------------|----------------------------------|
|-0-0-0-0-0-0-0-0-0-0-0-0-0-0-|-0-0-0-0-0-0-0-0-0-0-0-0-0-0-0-0--|
|-----------------------------|----------------------------------|


  Q  Q  E Q  E   +E  Q  Q  E Q    E E S S S S S S S S S S S S
|--------------|----------------|-----------------------------|
|--------------|----------------|-----------------------------|
|-4--4--4-4--4-|-(4)-4--4--4-4--|-0-0-0-0-0-0-0-0-0-0-0-0-0-0-|
|--------------|----------------|-----------------------------|


  S S S S S S S S S S S S S S S S   Q  E Q  E Q    E E E E E E E E
|---------------------------------|--------------|-----------------||
|---------------------------------|--------------|-----------------||
|-0-0-0-0-0-0-0-0-0-0-0-0-0-0-0-0-|--------------|-2-2-2-2-2-2-2-2-||
|---------------------------------|-2--2-2--2-2--|-----------------||


 Pre-Chorus
  $
  E E E E E E E E   E E E E E E E E   E S S S S E S S S S E S S
|-----------------|-----------------|----------------------------|
|-----------------|-----------------|-2-2-2-2-2-2-2-2-2-2-2-2-2--|
|-0-0-0-0-0-0-0-0-|-2-2-2-2-2-2-2-2-|----------------------------|
|-----------------|-----------------|----------------------------|
|
| Gtr II
| W                 W                 Q     E   Q     Q     E
|-----------------|-----------------|----------------------------|
|-----------------|-----------------|-9-----9---9-----7-----5----|
|-----------------|-----------------|-9-----9---9-----6-----4----|
|-----------------|-----------------|-9-----9---9----------------|
|-----------------|-----------------|----------------------------|
|-----------------|-----------------|----------------------------|


  E S S S S E S S S S E S S   E E E E E E E E   E E E E E E E E
|---------------------------|-----------------|------------------|
|-2-2-2-2-2-2-2-2-2-2-2-2-2-|-----------------|------------------|
|---------------------------|-0-0-0-0-0-0-0-0-|-2-2-2-2-2-2-2-2--|
|---------------------------|-----------------|------------------|
|
| W                           W                 W
|---------------------------|-----------------|------------------|
|-5-------------------------|-----------------|------------------|
|-4-------------------------|-----------------|------------------|
|---------------------------|-----------------|------------------|
|---------------------------|-----------------|------------------|
|---------------------------|-----------------|------------------|


  E S S S S E S S S S E S S   E E E E E E E E   E E E E E E E E
|---------------------------|---4-2-1---------|------------------|
|-2-2-2-2-2-2-2-2-2-2-2-2-2-|-2-------4-2-1---|------------------|
|---------------------------|---------------2-|-0-0-0-0-0-0-0-0--|
|---------------------------|-----------------|------------------|
|
| Q     E   Q     Q     E     W                 W
|---------------------------|-----------------|------------------|
|-9-----9---9-----7-----5---|-5---------------|------------------|
|-9-----9---9-----6-----4---|-4---------------|------------------|
|-9-----9---9---------------|-----------------|------------------|
|---------------------------|-----------------|------------------|
|---------------------------|-----------------|------------------|


  E E E E E E E E   E E E E E E E E   E E E E E E E E
|-----------------|-----------------|-----------------|
|-----------------|-2-2-2-2-2-2-2-2-|-------6-4-2-----|
|-2-2-2-2-2-2-2-2-|-----------------|-4-4-4-------6-4-|
|-----------------|-----------------|-----------------|


  E S S S S E S S S S S S S S
|-----------------------------|
|-----------------------------|
|-0-0-0-0-0-0-0-0-0-0-0-0-0-0-|
|-----------------------------|


  E S S S S E S S S S S S S S   Q  H.        W
|-----------------------------|------------|------||
|-----------------------------|------------|------||
|-0-0-0-0-0-0-0-0-0-0-0-0-0-0-|-2----------|------||
|-----------------------------|------------|------||


 Chorus
   E E E E E E E E    E E E E E E E E   E E E E E E E E    E  E E E E E E E
|------------------|------------------|-----------------|--------------------|
|------------------|------------------|-----------------|--------------------|
|--0-0-0-0-0-0-0-0-|--2-2-2-2-2-2-2-2-|-7-7-7-7-7-7-7-7-|--7--7-7-7-7-7-7-7--|
|------------------|------------------|-----------------|--------------------|
|
| Gtr II
|  W                  W                 W                 +H.           Q
|--5---------------|--2---------------|-4---------------|-(4)----------------|
|--5---------------|--4---------------|-5---------------|-(5)----------------|
|--6---------------|--4---------------|-4---------------|-(4)----------------|
|--7---------------|--4---------------|-2---------------|-(2)----------------|
|------------------|------------------|-----------------|--------------------|
|------------------|------------------|-----------------|--------------------|
|
| Gtr III
|  W                  W                 W                  W
|-12---------------|-14---------------|-----------------|--------------------|
|-14---------------|-16---------------|-----------------|--------------------|
|------------------|------------------|-----------------|--------------------|
|------------------|------------------|-----------------|--------------------|
|------------------|------------------|-----------------|--------------------|
|------------------|------------------|-----------------|--------------------|


   E E E E E E E E    E E E E E E E E   E E E E E E E E    E  E E E E E E E
|------------------|------------------|-----------------|--------------------|
|------------------|------------------|-----------------|--------------------|
|--0-0-0-0-0-0-0-0-|--2-2-2-2-2-2-2-2-|-7-7-7-7-7-7-7-7-|--7--7-7-7-7-7-7-7--|
|------------------|------------------|-----------------|--------------------|
|
|  W                  W                 W                 +H.           Q
|--5---------------|--2---------------|-4---------------|-(4)----------------|
|--5---------------|--4---------------|-5---------------|-(5)----------------|
|--6---------------|--4---------------|-4---------------|-(4)----------------|
|--7---------------|--4---------------|-2---------------|-(2)----------------|
|------------------|------------------|-----------------|--------------------|
|------------------|------------------|-----------------|--------------------|
|
|  W                  W                 W                  W
|-12---------------|-14---------------|-----------------|--------------------|
|-14---------------|-16---------------|-----------------|--------------------|
|------------------|------------------|-----------------|--------------------|
|------------------|------------------|-----------------|--------------------|
|------------------|------------------|-----------------|--------------------|
|------------------|------------------|-----------------|--------------------|


   E E E E E E E E    E E E E E E E E   E E E E E E E E    E  E E E  E  E E E
|------------------|------------------|-----------------|----------------------|
|------------------|------------------|-2-2-2-2-2-2-2-2-|----------------------|
|--0-0-0-0-0-0-0-0-|--2-2-2-2-2-2-2-2-|-----------------|--4--4-4-4--4--4-4-4--|
|------------------|------------------|-----------------|----------------------|
|
|  W                  W                 W                  H        +E  E Q
|--5---------------|--2---------------|-4---------------|-(4)-------(4)---4----|
|--5---------------|--4---------------|-5---------------|-(5)-------(5)---5----|
|--6---------------|--4---------------|-4---------------|--6--------(6)---1----|
|--7---------------|--4---------------|-2---------------|--6--------(6)--------|
|------------------|------------------|-----------------|----------------------|
|------------------|------------------|-----------------|----------------------|
|
|  W                  W                 W                  W
|-12---------------|-14---------------|-----------------|----------------------|
|-14---------------|-16---------------|-----------------|----------------------|
|------------------|------------------|-----------------|----------------------|
|------------------|------------------|-----------------|----------------------|
|------------------|------------------|-----------------|----------------------|
|------------------|------------------|-----------------|----------------------|


   E  S S S S  E  S S S S  S S S S    E  S S S S  E  S S S S  S S S S
|----------------------------------|----------------------------------|
|----------------------------------|----------------------------------|
|--0--0-0-0-0--0--0-0-0-0--0-0-0-0-|--0--0-0-0-0--0--0-0-0-0--0-0-0-0-|
|----------------------------------|----------------------------------|
|
|  Q.          Q.          Q          E  Q        Q.          Q
|--5-----------5-----------5-------|--5--5--------7-----------9-------|
|--5-----------5-----------5-------|--5--5--------7-----------9-------|
|--2-----------2-----------2-------|--2--2--------4-----------2-------|
|----------------------------------|----------------------------------|
|----------------------------------|----------------------------------|
|----------------------------------|----------------------------------|
|
|  Q.          Q.          Q          Q.          Q.          Q
|-12----------12----------12-------|-12----------14----------16-------|
|-14----------14----------14-------|-14----------16----------17-------|
|----------------------------------|----------------------------------|
|----------------------------------|----------------------------------|
|----------------------------------|----------------------------------|
|----------------------------------|----------------------------------|


                                 To Coda
   E  S S S S E S S S S S S S S   Q  H.
|-------------------------------|-----------||
|-------------------------------|-----------||
|--2--2-2-2-2-2-2-2-2-2-2-2-2-2-|-2---------||
|-------------------------------|-----------||
|
|  H.                   Q         W
|--7----------------------------|-----------||
|--7----------------------------|-----------||
|--4----------------------------|-----------||
|-------------------------------|-----------||
|-------------------------------|-----------||
|-------------------------------|-----------||
|
|  W                              W
|-14----------------------------|-----------||
|-16----------------------------|-----------||
|-------------------------------|-----------||
|-------------------------------|-----------||
|-------------------------------|-----------||
|-------------------------------|-----------||


 Bridge
   Q     E  E  E  E  E  E    E  E  E  E  E  E  E  E
|-------------------------|-------------------------|
|-------------------------|-------------------------|
|--4-----4--4--4--4--4--4-|--4--4--4--4--4--4--4--4-|
|-------------------------|-------------------------|
|
| Gtr III
|  E  E  E  E  E  E  E  E    E  E  E  E  E  E  E  E
|-------21----------21----|-------21----------21----|
|----21----21----21----21-|----21----21----21----21-|
|-18----------18----------|-18----------18----------|
|-------------------------|-------------------------|
|-------------------------|-------------------------|
|-------------------------|-------------------------|


  +E   E  E  E  E  E  E  E    E  E  E  E  E  E  E  E
|--------------------------|--------------------------|
|--------------------------|--------------------------|
|-(4)--4--4--4--4--4--4--4-|--4--4--4--4--4--4--4--4--|
|--------------------------|--------------------------|
|
|  E   E  E  E  E  E  E  E    E  E  E  E  E  E  E  E
|--------21----------21----|-------21----------21-----|
|-----21----21----21----21-|----21----21----21----21--|
|-18-----------18----------|-18----------18-----------|
|--------------------------|--------------------------|
|--------------------------|--------------------------|
|--------------------------|--------------------------|


  +E   E  E  E  E  E  E  E    E  E  E  E  E  E  E  E
|--------------------------|-------------------------|
|--------------------------|-------------------------|
|-(4)--4--4--4--4--4--4--4-|--4--4--4--4--4--4--4----|
|--------------------------|-----------------------0-|
|
|  E   E  E  E  E  E  E  E    E  E  E  E  E  E  E  E
|--------21----------21----|-------21----------21----|
|-----21----21----21----21-|----21----21----21----21-|
|-18-----------18----------|-18----------18----------|
|--------------------------|-------------------------|
|--------------------------|-------------------------|
|--------------------------|-------------------------|


  +E   E  E  E  E  E  E  E   +E   E  E  E  E  E  E  E
|--------------------------|---------------------------|
|--------------------------|---------------------------|
|------------------------2-|-(2)--2--2--2--2--2--2--4--|
|-(0)--0--0--0--0--0--0----|---------------------------|
|
|  E   E  E  E  E  E  E  E    E   E  E  E  E  E  E  E
|--------21----------21----|--------19----------19-----|
|-----21----21----21----19-|-----19----19----19----21--|
|-18-----------18----------|-16-----------16-----------|
|--------------------------|---------------------------|
|--------------------------|---------------------------|
|--------------------------|---------------------------|


  +E   E  E  E  E  E  E  E    E  E  E  E  E  E  E  E
|--------------------------|-------------------------|
|--------------------------|-------------------------|
|-(4)--4--4--4--4--4--4--4-|--4--4--4--4--4--4--4--4-|
|--------------------------|-------------------------|
|
|  E   E  E  E  E  E  E  E    E  E  E  E  E  E  E  E
|--------21----------21----|-------21----------21----|
|-----21----21----21----21-|----21----21----21----21-|
|-18-----------18----------|-18----------18----------|
|--------------------------|-------------------------|
|--------------------------|-------------------------|
|--------------------------|-------------------------|


  +E   E  E  E  E  E  E  E    E  E  E  E  E  E  E  E
|--------------------------|--------------------------|
|--------------------------|--------------------------|
|-(4)--4--4--4--4--4--4--4-|--4--4--4--4--4--4--4--4--|
|--------------------------|--------------------------|
|
|  E   E  E  E  E  E  E  E    E  E  E  E  E  E  E  E
|--------21----------21----|-------21----------21-----|
|-----21----21----21----21-|----21----21----21----21--|
|-18-----------18----------|-18----------18-----------|
|--------------------------|--------------------------|
|--------------------------|--------------------------|
|--------------------------|--------------------------|


  +E   E  E  E  E  E  E  E    E  E  E  E  E  E  E  E
|--------------------------|-------------------------|
|--------------------------|-------------------------|
|-(4)--4--4--4--4--4--4--4-|--4--4--4--4--4--4--4----|
|--------------------------|-----------------------0-|
|
|  E   E  E  E  E  E  E  E    E  E  E  E  E  E  E  E
|--------21----------21----|-------21----------21----|
|-----21----21----21----21-|----21----21----21----21-|
|-18-----------18----------|-18----------18----------|
|--------------------------|-------------------------|
|--------------------------|-------------------------|
|--------------------------|-------------------------|


  +E   S S  E  S S  E  S S  E  E   +E   S S  E  S S  E  S S  E  E
|--------------------------------|---------------------------------|
|--------------------------------|---------------------------------|
|------------------------------2-|-(2)--2-2--2--2-2--2--2-2--2--0--|
|-(0)--0-0--0--0-0--0--0-0--0----|---------------------------------|
|
|  E   E    E  E    E  E    E  E    E   E    E  E    E  E    E  E
|----------21--------------21----|----------19--------------19-----|
|-----21------21------21------19-|-----19------19------19------21--|
|-18---------------18------------|-16---------------16-------------|
|--------------------------------|---------------------------------|
|--------------------------------|---------------------------------|
|--------------------------------|---------------------------------|


              1.
  +W           Q  H.        Q  H.
|------------|------------|-----------||
|------------|------------|----------o||
|-(0)--------|-0----------|----------o||
|------------|------------|-4---------||


  2.
  Q       H.                         Q       H.
|----------------------------------|-----------------------------------||
|----------------------------------|-----------------------------------||
|-0--------------------------------|-----------------------------------||
|----------------------------------|-4---------------------------------||
|
| Gtr II
| S S S S S  S S S S S S S S S S S   S S S S S  S S S S S S S S S S S
|----------------------------------|-----------------------------------||
|----------------------------------|-----------------------------------||
|----------------------------------|-----------------------------------||
|----------------------------------|-----------------------------------||
|-2-2-2-2-2--2-3-3-4-4-4-4-4-4-4-4-|-2-2-2-2-2--3-3-3-4-4-5-5-5-5-6-6--||
|-0-0-0-0-0--0-1-1-2-2-2-2-2-2-2-2-|-0-0-0-0-0--1-1-1-2-2-3-3-3-3-4-4--||


 Pre-Solo Bridge
  E E E E S S E S S E   E E E E S S E S S E   S S E E E S S E S S E
|---------------------|---------------------|-----------------------|
|---------------------|---------------------|-----------------------|
|---------------------|---------------------|-----------------------|
|-0-0-0-0-0-0-0-0-0-0-|-0-0-0-0-0-0-0-0-0-0-|-0-0-0-0-0-0-0-0-0-0-0-|


  S S E E E S S E S S E   S S E E E S S E S S E   S S E E E S S E S S E
|-----------------------|-----------------------|-----------------------|
|-----------------------|-----------------------|-----------------------|
|-----------------------|-----------------------|-----------------------|
|-0-0-0-0-0-0-0-0-0-0-0-|-0-0-0-0-0-0-0-0-0-0-0-|-0-0-0-0-0-0-0-0-0-0-0-|


  S S E E E S S E S S E   S S E E E S S E S S E   S S E E S S E E S S E
|-----------------------|-----------------------|-----------------------|
|-----------------------|-----------------------|-----------------------|
|-----------------------|-----------------------|-----------------------|
|-0-0-0-0-0-0-0-0-0-0-0-|-0-0-0-0-0-0-0-0-0-0-0-|-0-0-0-0-0-0-0-0-0-0-0-|


  S S E E S S E E S S E   S S E E S S E E S S E   S S E E S S E E S S E
|-----------------------|-----------------------|-----------------------|
|-----------------------|-----------------------|-----------------------|
|-----------------------|-----------------------|-----------------------|
|-0-0-0-0-0-0-0-0-0-0-0-|-0-0-0-0-0-0-0-0-0-0-0-|-0-0-0-0-0-0-0-0-0-0-0-|


  S S E E S S E E S S E   S S E E S S E E S S E
|-----------------------|-----------------------|
|-----------------------|-----------------------|
|-----------------------|-----------------------|
|-0-0-0-0-0-0-0-0-0-0-0-|-0-0-0-0-0-0-0-0-0-0-0-|


  S S E E S S E E S S E   S S E E S S E E S S E
|-----------------------|-----------------------|
|-----------------------|-----------------------|
|-----------------------|-----------------------|
|-0-0-0-0-0-0-0-0-0-0-0-|-0-0-0-0-0-0-0-0-0-0-0-|


 Solo 1
  E S S E Q  E Q    E S S E Q.   Q    E S S S S S S S S S S S S S S
|-----------------|-----------------|-------------------------------|
|-----------------|-----------------|-------------------------------|
|-7-7-7-7-7--7-7--|-7-7-7-7-7----7--|-7-7-7-7-7-7-7-7-7-7-7-7-7-7-7-|
|-----------------|-----------------|-------------------------------|


  E S S E Q.   Q    E S S S S S S S S S S S S S S
|-----------------|-------------------------------|
|-----------------|-------------------------------|
|-7-7-7-7-7----7--|-5-5-5-5-5-5-5-5-5-5-5-5-5-5-5-|
|-----------------|-------------------------------|


  E S S S S S S S S S S S S S S
|-7-7-7-7-7-7-7-7-7-7-7-7-7-7-7-|
|-------------------------------|
|-------------------------------|
|-------------------------------|


  E S S E Q  E Q    E S S E Q.   Q    E S S E Q.   S S S S   E S S E Q.   Q
|-----------------|-----------------|----------------------|-----------------|
|-----------------|-----------------|----------------------|-----------------|
|-----------------|-5-5-5-5-5----5--|-5-5-5-5-5----5-5-5-5-|-7-7-7-7-7----7--|
|-7-7-7-7-7--7-7--|-----------------|----------------------|-----------------|


  E S S S S S S S S S S S S S S
|-------------------------------|
|-------------------------------|
|-7-7-7-7-7-7-7-7-7-7-7-7-7-7-7-|
|-------------------------------|


  E S S E E +H       E S S S S S S S S S S S S S S
|------------------|-------------------------------|
|------------------|-------------------------------|
|-7-7-7-7-7-(7)----|-5-5-5-5-5-5-5-5-5-5-5-5-5-5-5-|
|------------------|-------------------------------|


  E S S S S S S S S S S S S S S   E S S E Q  E Q    E S S E Q  E Q
|-7-7-7-7-7-7-7-7-7-7-7-7-7-7-7-|-----------------|-----------------||
|-------------------------------|-----------------|-----------------||
|-------------------------------|-----------------|-5-5-5-5-5--5-5--||
|-------------------------------|-7-7-7-7-7--7-7--|-----------------||


 Solo 2
  E E E E E E E E   E E E E E E E E
|-----------------|-----------------|
|-----------------|-0-0-0-0-2-2-2-2-|
|-3-3-3-3---------|-----------------|
|---------3-3-3-3-|-----------------|


  E S S S S E E S S S S E   E S S S S E H
|-------------------------|-------------7----|
|-------------------------|------------------|
|-3-3-3-3-3-3-3-3-3-3-3-3-|-5-5-5-5-5-5------|
|-------------------------|------------------|


  E E E E E E E E   E E E E E E E E
|-----------------|-----------------|
|-----------------|-0-0-0-0-2-2-2-2-|
|-3-3-3-3---------|-----------------|
|---------3-3-3-3-|-----------------|
|
| Gtr II
| W                 W
|-----------------|-----------------|
|-----------------|-----------------|
|-----------------|-----------------|
|-----------------|-----------------|
|-----------------|-----------------|
|-----------------|-----------------|


   E S S S S E E S S S S E    E S S S S E H
|--------------------------|-------------------|
|--------------------------|-------------------|
|--------------------------|--5-5-5-5-5-5-5----|
|--0-0-0-0-0-0-0-0-0-0-0-0-|-------------------|
|
|  W                          W
|--8-----------------------|-10----------------|
|-10-----------------------|--7----------------|
|--------------------------|-------------------|
|--------------------------|-------------------|
|--------------------------|-------------------|
|--------------------------|-------------------|


  Q  Q  Q  Q    Q  Q  Q  Q    W
|-------------|-------------|------||
|-2-----0-----|-------------|------||
|-------------|-3-----------|-2----||
|-------------|-------0-----|------||
|
| Q  Q  Q  Q    W             W
|-7--7--7--7--|-------------|------||
|-8--8--8--8--|-------------|------||
|-------------|-------------|------||
|-------------|-------------|------||
|-------------|-------------|------||
|-------------|-------------|------||


 Solo 3
  E E E E E E E E   E E E E E E E E   E E E E E E E E   E E E E E E E E
|-----------------|-----------------|-----------------|-------1-4-1------|
|-----------------|-----------------|-----------------|-----2-------4-2--|
|-4-4-4-4-4-4-4-4-|-4-4-4-4-4-4-4-4-|-4-4-4-4-4-4-4-4-|-4-4--------------|
|-----------------|-----------------|-----------------|------------------|


  E E E E E E E E   E E E E E E E E   E E E E E E E E   E E E E E E E E
|-----------------|-----------------|-----------------|------------------|
|-----------------|-----------------|-7-7-7-7-7-7-6-7-|-9-9-9-9-9-9-7-6--|
|-4-4-4-4-4-4-4-4-|-4-4-4-4-4-4-4-4-|-----------------|------------------|
|-----------------|-----------------|-----------------|------------------|


  E E E E E E E E   E E E E E E E E   E E E E E E E E   E E E E E E E E
|-----------------|-----------------|-----------------|------------------|
|-----------------|-----------------|-----------------|-------2-4-4------|
|-4-4-4-4-4-4-4-4-|-4-4-4-4-4-4-4-4-|-4-4-4-4-4-4-4-4-|-4-4-4-------7-6--|
|-----------------|-----------------|-----------------|------------------|


  E E E E E E E E   E E E E E E E E   E E E E E E E E   E E E E E E E E
|-----------------|-----------------|-----------------|------------------||
|-----------------|-----------------|-7-7-7-7-7-7-6-7-|-9-9-9-7-6--------||
|-4-4-4-4-4-4-4-4-|-4-4-4-4-4-4-4-4-|-----------------|-----------9-7-6--||
|-----------------|-----------------|-----------------|------------------||


 Solo 4
  E S S S S S S S S S S S S S S   S S S S S S S S S S S S S S S S
|-------------------------------|---------------------------------|
|-------------------------------|---------------------------------|
|-0-0-0-0-0-0-0-0-0-0-0-0-0-0-0-|-0-0-0-0-0-0-0-0-0-0-0-0-0-0-0-0-|
|-------------------------------|---------------------------------|


  Q  H    S S E   Q  Q  E. E. E   E S S S S S S S S S S S S S S
|---------------|---------------|--------------------------------|
|---------------|---------------|--------------------------------|
|-4--4----4-4-4-|-4--4--4--4--4-|-0-0-0-0-0-0-0-0-0-0-0-0-0-0-0--|
|---------------|---------------|--------------------------------|


  S S S S S S S S S S S S S S S S   Q  Q  E. E. E   Q  Q  E. E. E
|---------------------------------|---------------|---------------||
|---------------------------------|---------------|---------------||
|-0-0-0-0-0-0-0-0-0-0-0-0-0-0-0-0-|---------------|---------------||
|---------------------------------|-2--2--2--2--2-|-2--2--2--2--2-||


 Twin Solo 1
  E S S S S S S S S S S S S S S   E S S S S S S S S S S Q
|-------------------------------|--------------------------|
|-------------------------------|--------------------------|
|-4-4-4-4-4-4-4-4-4-4-4-4-4-4-4-|-4-4-4-4-4-4-4-4-4-4-4-2--|
|-------------------------------|--------------------------|


  E S S S S S S S S S S S S S S   E S S S S S S S S S S Q
|-------------------------------|--------------------------|
|-------------------------------|--------------------------|
|-4-4-4-4-4-4-4-4-4-4-4-4-4-4-4-|-4-4-4-4-4-4-4-4-4-4-4-2--|
|-------------------------------|--------------------------|


  E S S S S S S S S S S S S S S   E S S S S S S S S S S Q
|-------------------------------|--------------------------|
|-------------------------------|--------------------------|
|-4-4-4-4-4-4-4-4-4-4-4-4-4-4-4-|-4-4-4-4-4-4-4-4-4-4-4-2--|
|-------------------------------|--------------------------|


  E S S S S S S S S S S S S S S   E S S S S S S S S S S Q
|-------------------------------|--------------------------||
|-------------------------------|--------------------------||
|-4-4-4-4-4-4-4-4-4-4-4-4-4-4-4-|-4-4-4-4-4-4-4-4-4-4-4-2--||
|-------------------------------|--------------------------||


 Solo 5
  E E E E E E E E   E E E E E E E E   E S S S S E S S S S E S S
|-----------------|-----------------|----------------------------|
|-----------------|-----------------|----------------------------|
|-0-0-0-0-0-0-0-0-|-0-0-0-0-0-0-0-0-|-4-4-4-4-4-4-4-4-4-4-4-4-4--|
|-----------------|-----------------|----------------------------|


  E S S S S E S S S S E S S   E E E E E E E E   E E E E E E E E
|---------------------------|-----------------|------------------|
|---------------------------|-----------------|------------------|
|-4-4-4-4-4-4-4-4-4-4-4-4-4-|-0-0-0-0-0-0-0-0-|-0-0-0-0-0-0-0-0--|
|---------------------------|-----------------|------------------|


  E S S S S S S S S S S S S S S   E S S S S E S S S S E S S
|-------------------------------|---------------------------||
|-------------------------------|---------------------------||
|-------------------------------|---------------------------||
|-4-4-4-4-4-4-4-4-4-4-4-4-4-4-4-|-4-4-4-4-4-4-4-4-4-4-4-4-4-||


 Twin Solo 2
  E S S S S S S S S S S S S S S   E S S S S S S S S S S Q
|-------------------------------|--------------------------|
|-------------------------------|--------------------------|
|-4-4-4-4-4-4-4-4-4-4-4-4-4-4-4-|-4-4-4-4-4-4-4-4-4-4-4-2--|
|-------------------------------|--------------------------|


  E S S S S S S S S S S S S S S   E S S S S S S S S S S Q
|-------------------------------|--------------------------|
|-------------------------------|--------------------------|
|-4-4-4-4-4-4-4-4-4-4-4-4-4-4-4-|-4-4-4-4-4-4-4-4-4-4-4-2--|
|-------------------------------|--------------------------|


  E S S S S S S S S S S S S S S   E S S S S S S S S S S Q
|-------------------------------|--------------------------|
|-------------------------------|--------------------------|
|-4-4-4-4-4-4-4-4-4-4-4-4-4-4-4-|-4-4-4-4-4-4-4-4-4-4-4-2--|
|-------------------------------|--------------------------|


  E S S S S S S S S S S S S S S   E S S S S S S S S S S Q
|-------------------------------|--------------------------||
|-------------------------------|--------------------------||
|-4-4-4-4-4-4-4-4-4-4-4-4-4-4-4-|-4-4-4-4-4-4-4-4-4-4-4-2--||
|-------------------------------|--------------------------||


 Solo 6
  E E E E E E E E   E E E E E E E E   E E E E E E E E   E E E E E E E E
|-----------------|-----------------|-----------------|------------------|
|-----------------|-----------------|-----------------|------------------|
|-0-0-0-0-0-0-0-0-|-2-2-2-2-2-2-2-2-|-7-7-7-7-7-7-7-7-|-7-7-7-7-7-7-7-7--|
|-----------------|-----------------|-----------------|------------------|


  E E E E E E E E   E E E E E E E E   E E E E E E E E   E E E E E E E E
|-----------------|-----------------|-----------------|------------------|
|-----------------|-----------------|-----------------|------------------|
|-0-0-0-0-0-0-0-0-|-2-2-2-2-2-2-2-2-|-7-7-7-7-7-7-7-7-|-7-7-7-7-7-7-7-7--|
|-----------------|-----------------|-----------------|------------------|


  E E E E E E E E   E E E E E E E E   E E E E E E E E   E E E E E E E E
|-----------------|-----------------|-----------------|------------------|
|-----------------|-----------------|-2-2-2-2-2-2-2-2-|------------------|
|-0-0-0-0-0-0-0-0-|-2-2-2-2-2-2-2-2-|-----------------|-4-4-4-4-4-4-4-4--|
|-----------------|-----------------|-----------------|------------------|


  E S S S S E S S S S E S S   E S S S S E S S S S E S S
|---------------------------|---------------------------|
|---------------------------|---------------------------|
|-0-0-0-0-0-0-0-0-0-0-0-0-0-|-0-0-0-0-0-0-0-0-0-0-0-0-0-|
|---------------------------|---------------------------|


  E S S S S E S S S S E S S   E S S S S E S S S S E S S
|---------------------------|---------------------------||
|---------------------------|---------------------------||
|-2-2-2-2-2-2-2-2-2-2-2-2-2-|-2-2-2-2-2-2-2-2-2-2-2-2-2-||
|---------------------------|---------------------------||


 Choral Bridge
  E S S S S S S S S S S S S S S   E S S S S S S S S S S S S S S
|-------------------------------|--------------------------------|
|-------------------------------|--------------------------------|
|-4-4-4-4-4-4-4-4-4-4-4-4-4-4-4-|-0-0-0-0-0-0-0-0-0-0-0-0-0-0-0--|
|-------------------------------|--------------------------------|
|
| Gtr II
| W                               W
|-4-----------------------------|-5------------------------------|
|-------------------------------|--------------------------------|
|-1-----------------------------|-2------------------------------|
|-------------------------------|--------------------------------|
|-------------------------------|--------------------------------|
|-------------------------------|--------------------------------|


  E S S S S S S S S S S S S S S    E  S S S S S S S S S S S S S S
|-------------------------------|----------------------------------|
|-------------------------------|----------------------------------|
|-2-2-2-2-2-2-2-2-2-2-2-2-2-2-2-|--2--2-2-2-2-2-2-2-2-2-2-2-2-2-2--|
|-------------------------------|----------------------------------|
|
| W                               +W
|-2-----------------------------|-(2)------------------------------|
|-0-----------------------------|-(0)------------------------------|
|-------------------------------|----------------------------------|
|-------------------------------|----------------------------------|
|-------------------------------|----------------------------------|
|-------------------------------|----------------------------------|


  E E E E E E E E    E  E E E E E E E   E E E E E E E E    E  E E E E E E E
|-----------------|-------------------|-----------------|-------------4------|
|-----------------|-------------------|-----------------|---------1-4---4----|
|-4-4-4-4-4-4-4-4-|--4--4-4-4-4-4-4-4-|-2-2-2-2-2-2-2-2-|--2--2-4---------2--|
|-----------------|-------------------|-----------------|--------------------|
|
| W                 +W                  W                 +W
|-4---------------|-(4)---------------|-2---------------|-(2)----------------|
|-----------------|-------------------|-0---------------|-(0)----------------|
|-1---------------|-(1)---------------|-----------------|--------------------|
|-----------------|-------------------|-----------------|--------------------|
|-----------------|-------------------|-----------------|--------------------|
|-----------------|-------------------|-----------------|--------------------|


  E S S S S S S S S S S S S S S   E S S S S S S S S S S S S S S
|-------------------------------|--------------------------------|
|-------------------------------|--------------------------------|
|-4-4-4-4-4-4-4-4-4-4-4-4-4-4-4-|-0-0-0-0-0-0-0-0-0-0-0-0-0-0-0--|
|-------------------------------|--------------------------------|
|
| W                               W
|-4-----------------------------|-5------------------------------|
|-------------------------------|--------------------------------|
|-1-----------------------------|-2------------------------------|
|-------------------------------|--------------------------------|
|-------------------------------|--------------------------------|
|-------------------------------|--------------------------------|


  E S S S S S S S S S S S S S S    E  S S S S S S S S S S S S S S
|-------------------------------|----------------------------------|
|-------------------------------|----------------------------------|
|-2-2-2-2-2-2-2-2-2-2-2-2-2-2-2-|--2--2-2-2-2-2-2-2-2-2-2-2-2-2-2--|
|-------------------------------|----------------------------------|
|
| W                               +W
|-2-----------------------------|-(2)------------------------------|
|-0-----------------------------|-(0)------------------------------|
|-------------------------------|----------------------------------|
|-------------------------------|----------------------------------|
|-------------------------------|----------------------------------|
|-------------------------------|----------------------------------|


                                                                D.S. al Coda
  E E E E E E E E    E  E E E E E E E   E E E E E E E E    E  E E E E E E E
|-----------------|-------------------|-----------------|--------------------||
|-2-2-2-2-2-2-2-2-|--2--2-2-2-2-2-2-2-|-----------------|--------------------||
|-----------------|-------------------|-2-2-2-2-2-2-2-2-|--2--2-2-2-2-2-2-2--||
|-----------------|-------------------|-----------------|--------------------||
|
| W                 +W                  W                 +W
|-7---------------|-(7)---------------|-7---------------|-(7)----------------||
|-9---------------|-(9)---------------|-7---------------|-(7)----------------||
|-1---------------|-(1)---------------|-4---------------|-(4)----------------||
|-----------------|-------------------|-----------------|--------------------||
|-----------------|-------------------|-----------------|--------------------||
|-----------------|-------------------|-----------------|--------------------||


 Outro
  &
  E S S S S S S S S S S S S S S    E  S S S S S S S S S S S S S S
|-------------------------------|----------------------------------|
|-------------------------------|----------------------------------|
|-4-4-4-4-4-4-4-4-4-4-4-4-4-4-4-|--4--4-4-4-4-4-4-4-4-4-4-4-4-4-4--|
|-------------------------------|----------------------------------|
|
| W                               +W
|-------------------------------|----------------------------------|
|-------------------------------|----------------------------------|
|-6-----------------------------|-(6)------------------------------|
|-------------------------------|----------------------------------|
|-4-----------------------------|-(4)------------------------------|
|-------------------------------|----------------------------------|


  E S S E E E E E E    E  S S E E E E E E   E S S S S S S S S S S S S S S
|-------------------|---------------------|--------------------------------|
|-------------------|---------------------|--------------------------------|
|-4-4-4-4-4-4-4-4-4-|--4--4-4-4-4-4-4-4-4-|-2-2-2-2-2-2-2-2-2-2-2-2-2-2-2--|
|-------------------|---------------------|--------------------------------|
|
| W                   +W                    W
|-------------------|---------------------|--------------------------------|
|-------------------|---------------------|--------------------------------|
|-6-----------------|-(6)-----------------|-4------------------------------|
|-------------------|---------------------|--------------------------------|
|-4-----------------|-(4)-----------------|-2------------------------------|
|-------------------|---------------------|--------------------------------|


   E  S S S S E S S S S S S S S   E S S E E E E E S S    E  S S E E E E E S S
|-------------------------------|---------------------|-----------------------|
|-------------------------------|---------------------|-----------------------|
|--2--2-2-2-2-2-2-2-2-2-2-2-2-2-|-0-0-0-0-0-0-0-0-0-0-|--0--0-0-0-0-0-0-0-0-0-|
|-------------------------------|---------------------|-----------------------|
|
| +W                              W                     +W
|-------------------------------|---------------------|-----------------------|
|-------------------------------|---------------------|-----------------------|
|-(4)---------------------------|-2-------------------|-(2)-------------------|
|-------------------------------|---------------------|-----------------------|
|-(2)---------------------------|-0-------------------|-(0)-------------------|
|-------------------------------|---------------------|-----------------------|


  E S S S S S S S S S S S S S S    E  S S S S S S S S S S S S S S
|-------------------------------|----------------------------------|
|-------------------------------|----------------------------------|
|-4-4-4-4-4-4-4-4-4-4-4-4-4-4-4-|--4--4-4-4-4-4-4-4-4-4-4-4-4-4-4--|
|-------------------------------|----------------------------------|
|
| W                               +W
|-------------------------------|----------------------------------|
|-------------------------------|----------------------------------|
|-6-----------------------------|-(6)------------------------------|
|-------------------------------|----------------------------------|
|-4-----------------------------|-(4)------------------------------|
|-------------------------------|----------------------------------|


  E S S E E E E E E    E  S S E E E E E E   E S S S S S S S S S S S S S S
|-------------------|---------------------|--------------------------------|
|-------------------|---------------------|--------------------------------|
|-7-7-7-7-7-7-7-7-7-|--7--7-7-7-7-7-7-7-7-|--------------------------------|
|-------------------|---------------------|-7-7-7-7-7-7-7-7-7-7-7-7-7-7-7--|
|
| W                   +W                    W
|-------------------|---------------------|--------------------------------|
|-------------------|---------------------|--------------------------------|
|-9-----------------|-(9)-----------------|-4------------------------------|
|-------------------|---------------------|--------------------------------|
|-7-----------------|-(7)-----------------|-2------------------------------|
|-------------------|---------------------|--------------------------------|


   E  S S S S E S S S S S S S S   E S S E E E E E E    E  S S E E E E E E
|-------------------------------|-------------------|---------------------|
|-------------------------------|-------------------|---------------------|
|-------------------------------|-------------------|---------------------|
|--7--7-7-7-7-7-7-7-7-7-7-7-7-7-|-5-5-5-5-5-5-5-5-5-|--5--5-5-5-5-5-5-5-5-|
|
| +W                              W                   +W
|-------------------------------|-------------------|---------------------|
|-------------------------------|-------------------|---------------------|
|-(4)---------------------------|-2-----------------|-(2)-----------------|
|-------------------------------|-------------------|---------------------|
|-(2)---------------------------|-0-----------------|-(0)-----------------|
|-------------------------------|-------------------|---------------------|


   E S S S S S S  S S S S S S S S    S  S S S S S S S  S S S S S S S S
|---------------------------------|------------------------------------|
|---------------------------------|------------------------------------|
|---------------------------------|------------------------------------|
|--5-5-5-5-5-5-5--5-5-5-5-5-5-5-5-|--5--5-5-5-5-5-5-5--5-5-5-5-5-5-5-5-|
|
|  W                                +W
|---------------------------------|------------------------------------|
|---------------------------------|------------------------------------|
|--2------------------------------|-(2)--------------------------------|
|---------------------------------|------------------------------------|
|--0------------------------------|-(0)--------------------------------|
|---------------------------------|------------------------------------|
|
| Gtr III
|  H              H                  H                 H
|---------------------------------|-------------------21---------------|
|---------------------------------|-22----------------22---------------|
|----------------21---------------|-21---------------------------------|
|-23-------------23---------------|------------------------------------|
|-24------------------------------|------------------------------------|
|---------------------------------|------------------------------------|


   S  S  S  S  E.   S  S  S  S  S  E.   S
|-------------------------------------------||
|-------------------------------------------||
|--4--4--4--4--4-------4--4--4--4--4--------||
|-------------------------------------------||
|
|  W
|-------------------------------------------||
|-------------------------------------------||
|-------------------------------------------||
|-------------------------------------------||
|-------------------------------------------||
|-------------------------------------------||
|
|  S  S  S  S  E  E    S  S  S  S  E  E
|-21-21-21-21-21------21-21-21-21-21--------||
|-21-21-21-21-21------21-21-21-21-21--------||
|-------------------------------------------||
|-------------------------------------------||
|-------------------------------------------||
|-------------------------------------------||


 Finale
   E.    S H.         W          W              +W
|-------------------|----------|--------------|---------|
|-------------------|----------|--------------|---------|
|--4----------------|----------|-0------------|-(0)-----|
|-------------------|----------|--------------|---------|
|
| Gtr III
|  E  Q.       H      W          W              +W
|-21----------------|----------|--------------|---------|
|-21----------------|----------|--------------|---------|
|-------------------|----------|--------------|---------|
|-------------------|----------|-1pb7=========|=(1)r====|
|-------------------|----------|-1pb7=========|=(1)r====|
|-------------------|----------|--------------|---------|


  +W            +W             E  H      Q.     W
|-------------|-------------|-----------------|------*|
|-------------|-------------|-----------------|------*|
|-(0)---------|-(0)---------|-----------------|------*|
|-------------|-------------|--9--9------9----|-x----*|
|
| +W            +H     H       E  Q  E H        W
|-------------|-------------|-12-12-----------|------*|
|-------------|-------------|-14-14-----------|------*|
|-------------|-------------|-----------------|------*|
|-(1)---------|-(1)---------|-----------------|------*|
|-(1)---------|-(1)---------|-----------------|------*|
|-------------|-------------|-----------------|------*|
|
| Gtr II
|  H     H      +W             W                W
|-------------|-------------|-----------------|------*|
|-------------|-------------|-----------------|------*|
|-------------|-------------|-----------------|------*|
|--------9----|-(9)---------|--9--------------|------*|
|--------7----|-(7)---------|--7--------------|------*|
|--------0----|-(0)---------|--0--------------|------*|



Duration Legend
---------------
W - whole; H - half; Q - quarter; E - 8th; S - 16th; T - 32nd; X - 64th; a - acciaccatura
+ - note tied to previous; . - note dotted; .. - note double dotted
Uncapitalized letters represent notes that are staccato (1/2 duration)
Irregular groupings are notated above the duration line
Duration letters will always appear directly above the note/fret number it represents the
duration for.  Duration letters with no fret number below them represent rests.  Multi-
bar rests are notated in the form Wxn, where n is the number of bars to rest for.  Low
melody durations appear below the staff

Tablature Legend
----------------
 h   - hammer-on
 p   - pull-off
 b   - bend
 pb  - pre-bend
 r   - bend release (if no number after the r, then release immediately)
 /\  - slide into or out of (from/to "nowhere")
 s   - legato slide
 S   - shift slide
 - natural harmonic
[n]  - artificial harmonic
n(n) - tapped harmonic
 ~   - vibrato
 tr  - trill
 T   - tap
 TP  - trem. picking
 PM  - palm muting
\n/  - tremolo bar dip; n = amount to dip
 \n  - tremolo bar down
 n/  - tremolo bar up
/n\  - tremolo bar inverted dip
 =   - hold bend; also acts as connecting device for hammers/pulls
 <> - volume swell (louder/softer)
 x   - on rhythm slash represents muted slash
 o   - on rhythm slash represents single note slash

Misc Legend
-----------
 |  - bar
||  - double bar
||o - repeat start
o|| - repeat end
*|  - double bar (ending)
 :  - bar (freetime)
 $  - Segno
 &  - Coda
Tempo markers -  = BPM(8/16=s8/s16), where s8 = swing 8ths, s16 = swing 16ths
Show more