• Song:

    My Spirit Will Go On

  • Artist:

    Dragonforce

  • Album:

    Sonic Firestorm

#----------------------------------PLEASE NOTE---------------------------------#
#This file is the author's own work and represents their interpretation of the #
#song. You may only use this file for private study, scholarship, or research. #
#------------------------------------------------------------------------------#

MY SPIRIT WILL GO ON
As recorded by DragonForce
(From the 2004 Album SONIC FIRESTORM)

Transcribed by Knightrider of Doom & Samurai Sweetie
	

Words by ZP Threart and Sam Totman Music by Sam Totman

Gtr I (E A D G B E) - 'Clean'
Gtr II (E A D G B E) - 'Lead'
Gtr III (E A D G B E) - 'Rhythm'
Gtr IV (E A D G B E) - 'Main Keyboards'

 Intro
  Q=200
 4/4
  Gtr I
   E E E E E E E E     E  E E E E E E E
|------------------|--------------------|
|------------------|--------------------|
|------------------|--------------------|
|--2-----2-----2---|---4------4-----4---|
|----2-----2-------|------2-----2-------|
|------0-----0---0-|--------0-----0---0-|
|
| Gtr IV
|  W                  +W
|------------------|--------------------|
|-12---------------|-(12)---------------|
|--9---------------|--(9)---------------|
|------------------|--------------------|
|------------------|--------------------|
|------------------|--------------------|


    E  E E E E E E E     E  E E E E E E E
|--------------------|--------------------|
|--------------------|--------------------|
|---0------0-----0---|--------------------|
|--------------------|---4------0-----4---|
|------2-----2-------|------2-----2-------|
|--------0-----0---0-|--------0-----0---0-|
|
|  +W                   +W
|--------------------|--------------------|
|-(12)---------------|-(12)---------------|
|--(9)---------------|--(9)---------------|
|--------------------|--------------------|
|--------------------|--------------------|
|--------------------|--------------------|


    E  E E E E E E E     E  E E E E E E E
|--------------------|--------------------|
|--------------------|--------------------|
|--------------------|--------------------|
|---2------2-----2---|---4------4-----4---|
|------2-----2-------|------2-----2-------|
|--------0-----0---0-|--------0-----0---0-|
|
|  +W                   +W
|--------------------|--------------------|
|-(12)---------------|-(12)---------------|
|--(9)---------------|--(9)---------------|
|--------------------|--------------------|
|--------------------|--------------------|
|--------------------|--------------------|


    E  E E E E E E E     E  E E E E E E E
|--------------------|--------------------|
|--------------------|--------------------|
|---0------0-----0---|--------------------|
|--------------------|---4------0-----4---|
|------2-----2-------|------2-----2-------|
|--------0-----0---0-|--------0-----0---0-|
|
|  +W                   +W
|--------------------|--------------------|
|-(12)---------------|-(12)---------------|
|--(9)---------------|--(9)---------------|
|--------------------|--------------------|
|--------------------|--------------------|
|--------------------|--------------------|


   E E E E E E E E     E  E E E E E E E
|------------------|--------------------|
|--0-----0-----0---|---1------1-----1---|
|------------------|--------------------|
|----2-----2-------|------2-----2-------|
|------2-----2---2-|--------2-----2---2-|
|------------------|--------------------|
|
|  W                  +W
|------------------|--------------------|
|-12---------------|-(12)---------------|
|--9---------------|--(9)---------------|
|------------------|--------------------|
|------------------|--------------------|
|------------------|--------------------|


    E  E E E E E E E     E  E E E E E E E
|--------------------|--------------------|
|---0------0-----0---|--------------------|
|--------------------|---2------0-----2---|
|------2-----2-------|------2-----2-------|
|--------2-----2---2-|--------2-----2---2-|
|--------------------|--------------------|
|
|  +W                   +W
|--------------------|--------------------|
|-(12)---------------|-(12)---------------|
|--(9)---------------|--(9)---------------|
|--------------------|--------------------|
|--------------------|--------------------|
|--------------------|--------------------|


    E  E E E E E E E     E  E E E E E E E
|--------------------|--------------------|
|---0------0-----0---|---1------1-----1---|
|--------------------|--------------------|
|------2-----2-------|------2-----2-------|
|--------2-----2---2-|--------2-----2---2-|
|--------------------|--------------------|
|
|  +W                   +W
|--------------------|--------------------|
|-(12)---------------|-(12)---------------|
|--(9)---------------|--(9)---------------|
|--------------------|--------------------|
|--------------------|--------------------|
|--------------------|--------------------|


  E E E E E E E E    E  E E E E E E E
|-----------------|-------------------|
|-0-----0-----0---|-------------------|
|-----------------|--2------0-----2---|
|---2-----2-------|-----2-----2-------|
|-----2-----2---2-|-------2-----2---2-|
|-----------------|-------------------|
|
| W                 +W
|-----------------|-------------------|
|-0---------------|-(0)---------------|
|-0---------------|-(0)---------------|
|-----------------|-------------------|
|-----------------|-------------------|
|-----------------|-------------------|


   E  E E  E  E   E  E    E    E E E E E   E E   E
|---------------------------|----------------------|
|---------------------------|----------------------|
|---------------------------|----------------------|
|--2-------2---------2------|--4-----4-------4-----|
|-----2-------2-------------|----2-----2-----------|
|-------0---------0-------0-|------0-------0-----0-|
|
| Gtr III
|  E  E E  E  S S E  S  S E    E E E E S S E S S E
|---------------------------|----------------------|
|---------------------------|----------------------|
|---------------------------|----------------------|
|---------------------------|----------------------|
|--2--2-2--2--2-2-2--2--2-2-|--2-2-2-2-2-2-2-2-2-2-|
|--0--0-0--0--0-0-0--0--0-0-|--0-0-0-0-0-0-0-0-0-0-|
|
| Gtr IV
|  Q.      Q.        Q         W
|-15------14--------15------|-17-------------------|
|--8-------7---------8------|-10-------------------|
|--9------(9)-------(9)-----|-11-------------------|
|--5------(5)-------(5)-----|--7-------------------|
|---------------------------|----------------------|
|---------------------------|----------------------|


   E    E E   E  E   E   E    E    E    E E   E  E   E   E    E
|-------------------------------|---------------------------------|
|-------------------------------|---------------------------------|
|--0----------0----------0------|---------------------------------|
|-------------------------------|--4----------0----------4--------|
|-------2--------2--------------|-------2--------2----------------|
|---------0----------0--------0-|---------0----------0--------0---|
|
|  S  S E E   E  S S E   S  S E    S  S E E   E  S S E   S  S E
|-------------------------------|---------------------------------|
|-------------------------------|---------------------------------|
|-------------------------------|---------------------------------|
|-------------------------------|---------------------------------|
|--2--2-2-2---2--2-2-2---2--2-2-|--2--2-2-2---2--2-2-2---2--2-2---|
|--0--0-0-0---0--0-0-0---0--0-0-|--0--0-0-0---0--0-0-0---0--0-0---|
|
|  Q.         Q.         Q         Q.         Q.         Q
|-19---------17---------19------|-17---------15---------17--------|
|-12---------10---------12------|-10----------8---------10--------|
|-12--------(12)-------(12)-----|-11--------(11)-------(11)-------|
|--9---------(9)--------(9)-----|--7---------(7)--------(7)-------|
|-------------------------------|---------------------------------|
|-------------------------------|---------------------------------|


   E    E E  E  E   E  E    E    E   E E E E   E E   E
|-----------------------------|------------------------|
|-----------------------------|------------------------|
|-----------------------------|------------------------|
|--2---------2---------2------|--4-------4-------4-----|
|-------2-------2-------------|------2-----2-----------|
|---------0---------0-------0-|--------0-------0-----0-|
|
|  S  S E E  E  S S E  S  S E    S S E E E S S E S S E
|-----------------------------|------------------------|
|-----------------------------|------------------------|
|-----------------------------|------------------------|
|-----------------------------|------------------------|
|--2--2-2-2--2--2-2-2--2--2-2-|--2-2-2-2-2-2-2-2-2-2-2-|
|--0--0-0-0--0--0-0-0--0--0-0-|--0-0-0-0-0-0-0-0-0-0-0-|
|
|  Q.        Q.        Q         W
|-15--------14--------15------|-17---------------------|
|--8---------7---------8------|-10---------------------|
|--9--------(9)-------(9)-----|-11---------------------|
|--5--------(5)-------(5)-----|--7---------------------|
|-----------------------------|------------------------|
|-----------------------------|------------------------|


   E    E E   E  E   E   E    E    E    E E   E  E   E   E    E
|-------------------------------|-------------------------------|
|-------------------------------|-------------------------------|
|--0----------0----------0------|-------------------------------|
|-------------------------------|--4----------0----------4------|
|-------2--------2--------------|-------2--------2--------------|
|---------0----------0--------0-|---------0----------0--------0-|
|
|  S  S E E   E  S S E   S  S E    S  S E E   E  S S E   S  S E
|-------------------------------|-------------------------------|
|-------------------------------|-------------------------------|
|-------------------------------|-------------------------------|
|-------------------------------|-------------------------------|
|--2--2-2-2---2--2-2-2---2--2-2-|--2--2-2-2---2--2-2-2---2--2-2-|
|--0--0-0-0---0--0-0-0---0--0-0-|--0--0-0-0---0--0-0-0---0--0-0-|
|
|  Q.         Q.         Q         Q.         Q.         Q
|-19---------17---------19------|-17---------15---------17------|
|-12---------10---------12------|-10----------8---------10------|
|-12--------(12)-------(12)-----|-11--------(11)-------(11)-----|
|--9---------(9)--------(9)-----|--7---------(7)--------(7)-----|
|-------------------------------|-------------------------------|
|-------------------------------|-------------------------------|


   E  E E  E    E E  E    E    E   E E E   E E E   E
|---------------------------|------------------------|
|--0-------0---------0------|--1-------1-------1-----|
|---------------------------|------------------------|
|-----2---------2-----------|------2-------2---------|
|-------2---------2-------2-|--------2-------2-----2-|
|---------------------------|------------------------|
|
|  E  E E  S  S E E  S  S E    S S E E S S E E S S E
|---------------------------|------------------------|
|---------------------------|------------------------|
|---------------------------|------------------------|
|---------------------------|------------------------|
|--2--2-2--2--2-2-2--2--2-2-|--2-2-2-2-2-2-2-2-2-2-2-|
|--0--0-0--0--0-0-0--0--0-0-|--0-0-0-0-0-0-0-0-0-0-0-|
|
|  Q.      Q.        Q         W
|-15------14--------15------|-17---------------------|
|--8-------7---------8------|-10---------------------|
|--9------(9)-------(9)-----|-11---------------------|
|--5------(5)-------(5)-----|--7---------------------|
|---------------------------|------------------------|
|---------------------------|------------------------|


   E    E E   E    E E   E    E    E    E E   E    E E   E    E
|-------------------------------|--------------------------------|
|--0----------0----------0------|--------------------------------|
|-------------------------------|--2----------0----------2-------|
|-------2----------2------------|-------2----------2-------------|
|---------2----------2--------2-|---------2----------2--------2--|
|-------------------------------|--------------------------------|
|
|  S  S E E   S  S E E   S  S E    S  S E E   S  S E E   S  S E
|-------------------------------|--------------------------------|
|-------------------------------|--------------------------------|
|-------------------------------|--------------------------------|
|-------------------------------|--------------------------------|
|--2--2-2-2---2--2-2-2---2--2-2-|--2--2-2-2---2--2-2-2---2--2-2--|
|--0--0-0-0---0--0-0-0---0--0-0-|--0--0-0-0---0--0-0-0---0--0-0--|
|
|  Q.         Q.         Q         Q.         Q.         Q
|-19---------17---------19------|-17---------15---------17-------|
|-12---------10---------12------|-10----------8---------10-------|
|-12--------(12)-------(12)-----|-11--------(11)-------(11)------|
|--9---------(9)--------(9)-----|--7---------(7)--------(7)------|
|-------------------------------|--------------------------------|
|-------------------------------|--------------------------------|


   E    E E  E    E E  E    E    E   E E E   E E E   E
|-----------------------------|------------------------|
|-----------------------------|------------------------|
|-----------------------------|------------------------|
|--2---------2---------2------|--4-------4-------4-----|
|-------2---------2-----------|------2-------2---------|
|---------0---------0-------0-|--------0-------0-----0-|
|
|  S  S E E  S  S E E  S  S E    S S E E S S E E S S E
|-----------------------------|------------------------|
|-----------------------------|------------------------|
|-----------------------------|------------------------|
|-----------------------------|------------------------|
|--2--2-2-2--2--2-2-2--2--2-2-|--2-2-2-2-2-2-2-2-2-2-2-|
|--0--0-0-0--0--0-0-0--0--0-0-|--0-0-0-0-0-0-0-0-0-0-0-|
|
|  Q.        Q.        Q         W
|-15--------14--------15------|-17---------------------|
|--8---------7---------8------|-10---------------------|
|--9--------(9)-------(9)-----|-11---------------------|
|--5--------(5)-------(5)-----|--7---------------------|
|-----------------------------|------------------------|
|-----------------------------|------------------------|


   E    E E   E    E E   E    E    E    E E   E    E E   E    E
|-------------------------------|-------------------------------|
|-------------------------------|-------------------------------|
|--0----------0----------0------|-------------------------------|
|-------------------------------|--4----------0----------4------|
|-------2----------2------------|-------2----------2------------|
|---------0----------0--------0-|---------0----------0--------0-|
|
|  S  S E E   S  S E E   S  S E    S  S E E   S  S E E   S  S E
|-------------------------------|-------------------------------|
|-------------------------------|-------------------------------|
|-------------------------------|-------------------------------|
|-------------------------------|-------------------------------|
|--2--2-2-2---2--2-2-2---2--2-2-|--2--2-2-2---2--2-2-2---2--2-2-|
|--0--0-0-0---0--0-0-0---0--0-0-|--0--0-0-0---0--0-0-0---0--0-0-|
|
|  Q.         Q.         Q         Q.         Q.         Q
|-19---------17---------19------|-17---------15---------17------|
|-12---------10---------12------|-10----------8---------10------|
|-12--------(12)-------(12)-----|-11--------(11)-------(11)-----|
|--9---------(9)--------(9)-----|--7---------(7)--------(7)-----|
|-------------------------------|-------------------------------|
|-------------------------------|-------------------------------|


  Gtr II
   W                     H.          +E. S
|--------------------|---------------------|
|--------------------|---------------------|
|--------------------|---------------------|
|--------------------|--16----------(16)-7-|
|--------------------|--14----------(14)-5-|
|--------------------|---------------------|
|
|  Q   Q    Q    Q       Q   Q   Q    Q
|--------------------|---------------------|
|--------------------|---------------------|
|--4--(4)--(4)--(4)--|--(4)--4---5----7----|
|--4--(4)--(4)--(4)--|--(4)--4---5----7----|
|--2---2----2----2---|---2---2---3----5----|
|--------------------|---------------------|
|
|  W                    +H       Q    Q
|-19-----------------|-(19)-----20---22----|
|-12-----------------|-(12)-----13---15----|
|-11-----------------|-(11)-----12---14----|
|--9-----------------|--(9)-----10---12----|
|--------------------|---------------------|
|--------------------|---------------------|


   Q.          Q.            Q           Q.          Q.          Q
|------------------------------------|-------------------------------------|
|------------------------------------|--------------10----------12---------|
|--7b9---------9------------11-------|--12---------------------------------|
|------------------------------------|-------------------------------------|
|------------------------------------|-------------------------------------|
|------------------------------------|-------------------------------------|
|
|  E   S S S S S  S S S S S  S S S S     E  S S S S  E  S S S S  S S S S
|------------------------------------|-------------------------------------|
|------------------------------------|-------------------------------------|
|------------------------------------|-------------------------------------|
|--9---------------------------------|---9-----------9---------------------|
|--7---7-7-7-7-7--7-7-7-7-7--7-7-7-7-|---7--7-7-7-7--7--7-7-7-7--7-7-7-7---|
|------------------------------------|-------------------------------------|
|
|  W                                    +W
|-19---------------------------------|-(19)--------------------------------|
|--5---------------------------------|--(5)--------------------------------|
|------------------------------------|-------------------------------------|
|--9---------------------------------|--(9)--------------------------------|
|--7---------------------------------|--(7)--------------------------------|
|------------------------------------|-------------------------------------|


    Q.      Q.    Q      H      Q   Q
|--------------------|-----------------|
|--10b12---10--------|--12---------10--|
|----------------12--|---------12------|
|--------------------|-----------------|
|--------------------|-----------------|
|--------------------|-----------------|
|
|   W                   +W
|--------------------|-----------------|
|--------------------|-----------------|
|---9----------------|--(9)------------|
|---9----------------|--(9)------------|
|---7----------------|--(7)------------|
|--------------------|-----------------|
|
|  +W                   +W
|-(19)---------------|-(19)------------|
|--(5)---------------|--(5)------------|
|--------------------|-----------------|
|--(9)---------------|--(9)------------|
|--(7)---------------|--(7)------------|
|--------------------|-----------------|


   Q.            Q.            Q           H             Q        Q
|--------------------------------------|------------------------------------|
|-10b12---------10---------------------|--12---------------------10---------|
|-----------------------------12-------|----------------12------------------|
|--------------------------------------|------------------------------------|
|--------------------------------------|------------------------------------|
|--------------------------------------|------------------------------------|
|
|  E    S S S S  S  S S S S S  S S S S     E  S S S S E  S S S S  S S S S
|--------------------------------------|------------------------------------|
|--------------------------------------|------------------------------------|
|--------------------------------------|------------------------------------|
|--7-----------------------------------|---7----------7---------------------|
|--5----5-5-5-5--5--5-5-5-5-5--5-5-5-5-|---5--5-5-5-5-5--5-5-5-5--5-5-5-5---|
|--------------------------------------|------------------------------------|
|
|  W                                      +W
|-17-----------------------------------|-(17)-------------------------------|
|--3-----------------------------------|--(3)-------------------------------|
|--------------------------------------|------------------------------------|
|--7-----------------------------------|--(7)-------------------------------|
|--5-----------------------------------|--(5)-------------------------------|
|--------------------------------------|------------------------------------|


   Q.      Q.    Q      Q.    Q.    Q
|-------------------|------------------|
|-10b12---10--------|--------------10--|
|---------------12--|--12----12--------|
|-------------------|------------------|
|-------------------|------------------|
|-------------------|------------------|
|
|  W                   +W
|-------------------|------------------|
|-------------------|------------------|
|--5----------------|--(5)-------------|
|--5----------------|--(5)-------------|
|--3----------------|--(3)-------------|
|-------------------|------------------|
|
|  W                   +H.          Q
|-15----------------|-(15)---------17--|
|--1----------------|--(1)----------3--|
|-------------------|------------------|
|--5----------------|--(5)----------7--|
|--3----------------|--(3)----------5--|
|-------------------|------------------|


   Q.          Q.            Q           Q.           Q.          Q
|------------------------------------|--------------[10]--------------------|
|------------------------------------|---------------------------12---------|
|--7b9---------9------------11-------|--12----------------------------------|
|------------------------------------|--------------------------------------|
|------------------------------------|--------------------------------------|
|------------------------------------|--------------------------------------|
|
|  E   S S S S S  S S S S S  S S S S     E  S S S S   E  S S S S  S S S S
|------------------------------------|--------------------------------------|
|------------------------------------|--------------------------------------|
|------------------------------------|--------------------------------------|
|--9---------------------------------|---9------------9---------------------|
|--7---7-7-7-7-7--7-7-7-7-7--7-7-7-7-|---7--7-7-7-7---7--7-7-7-7--7-7-7-7---|
|------------------------------------|--------------------------------------|
|
|  W                                    +W
|-19---------------------------------|-(19)---------------------------------|
|--5---------------------------------|--(5)---------------------------------|
|------------------------------------|--------------------------------------|
|--9---------------------------------|--(9)---------------------------------|
|--7---------------------------------|--(7)---------------------------------|
|------------------------------------|--------------------------------------|


   Q.      Q.      Q      H         Q   Q
|---------------------|--------------------|
|-13b15---12b13r==10--|-[10]b12--------10--|
|---------------------|------------12------|
|---------------------|--------------------|
|---------------------|--------------------|
|---------------------|--------------------|
|
|  W                     +W
|---------------------|--------------------|
|---------------------|--------------------|
|---------------------|--------------------|
|--5------------------|--(5)---------------|
|--5------------------|--(5)---------------|
|--3------------------|--(3)---------------|
|
|  W                     +W
|-19------------------|-(19)---------------|
|--8------------------|--(8)---------------|
|--7------------------|--(7)---------------|
|--5------------------|--(5)---------------|
|---------------------|--------------------|
|---------------------|--------------------|


   Q.            Q.            Q           H               Q        Q
|--------------------------------------|--------------------------------------|
|-10b12---------10---------------------|---8b10--------------------10---------|
|-----------------------------12-------|------------------12------------------|
|--------------------------------------|--------------------------------------|
|--------------------------------------|--------------------------------------|
|--------------------------------------|--------------------------------------|
|
|  E    S S S S  S  S S S S S  S S S S     E    S S S S E  S S S S  S S S S
|--------------------------------------|--------------------------------------|
|--------------------------------------|--------------------------------------|
|--------------------------------------|--------------------------------------|
|--7-----------------------------------|---7------------7---------------------|
|--5----5-5-5-5--5--5-5-5-5-5--5-5-5-5-|---5----5-5-5-5-5--5-5-5-5--5-5-5-5---|
|--------------------------------------|--------------------------------------|
|
|  W                                      +W
|-17-----------------------------------|-(17)---------------------------------|
|--3-----------------------------------|--(3)---------------------------------|
|--------------------------------------|--------------------------------------|
|--7-----------------------------------|--(7)---------------------------------|
|--5-----------------------------------|--(5)---------------------------------|
|--------------------------------------|--------------------------------------|


   Q.     Q.      Q         Q.      Q.      Q          Q   H.
|-----------------------|--------------------------|-------------||
|-10b12---8b10----------|--------------------------|-[12]--------||
|----------------11b12--|--11b12---11b12---[9]b11--|-------------||
|-----------------------|--------------------------|-------------||
|-----------------------|--------------------------|-------------||
|-----------------------|--------------------------|-------------||
|
|  W                       +W                          Q   H.
|-----------------------|--------------------------|-------------||
|-----------------------|--------------------------|-------------||
|--5--------------------|--(5)---------------------|-------------||
|--5--------------------|--(5)---------------------|---2---------||
|--3--------------------|--(3)---------------------|---2---------||
|-----------------------|--------------------------|---0---------||
|
|  W                       +W                          W
|-15--------------------|-(15)---------------------|-------------||
|--1--------------------|--(1)---------------------|-------------||
|-----------------------|--------------------------|-------------||
|--5--------------------|--(5)---------------------|-------------||
|--3--------------------|--(3)---------------------|-------------||
|-----------------------|--------------------------|-------------||


   Verse
    Gtrs II, III
    E S S S S E E S S S S E    E  S S S S E S S S S E E
||--------------------------|---------------------------|
||o-------------------------|---------------------------|
||--------------------------|---------------------------|
||--6-----------------------|--4----------6---------4-6-|
||o-4-4-4-4-4-4-7-4-4-4-4-4-|--4--4-4-4-4---4-4-4-4-----|
||--------------------------|---------------------------|
|
|   Gtr IV
|   W                         +W
||--------------------------|---------------------------|
||o-------------------------|---------------------------|
||--------------------------|---------------------------|
||--------------------------|---------------------------|
||o-4-----------------------|-(4)-----------------------|
||--------------------------|---------------------------|


   E  S S S S E E S S S S E    E  S S S S E S S S S Q
|---------------------------|--------------------------|
|---------------------------|--------------------------|
|---------------------------|--------------------------|
|---------------------------|--4----------6---------4--|
|--4--4-4-4-4-4-7-4-4-4-4-4-|--4--4-4-4-4-4-4-4-4-4-4--|
|---------------------------|--------------------------|
|
| +W                          +W
|---------------------------|--------------------------|
|---------------------------|--------------------------|
|---------------------------|--------------------------|
|---------------------------|--------------------------|
|-(4)-----------------------|-(4)----------------------|
|---------------------------|--------------------------|


  E S S S S E S S S S E   S S    E  S S S S E S S S S E E
|-----------------------------|--2----------4---------2-4-|
|-5-2---2---5-2---2---5---2---|-----2---2-----2---2-------|
|-----------------------------|---------------------------|
|-----------------------------|---------------------------|
|-----------------------------|---------------------------|
|-----------------------------|---------------------------|
|
| Gtr III
| E S S S S E E   S S S S E      E  S S S S E S S S S E E
|-----------------------------|---------------------------|
|-----------------------------|---------------------------|
|-----------------------------|---------------------------|
|-6---------------------------|--4----------6---------4-6-|
|-4-4-4-4-4-4-7---4-4-4-4-4---|--4--4-4-4-4---4-4-4-4-----|
|-----------------------------|---------------------------|
|
| Gtr IV
| W                             +W
|-----------------------------|---------------------------|
|-----------------------------|---------------------------|
|-----------------------------|---------------------------|
|-----------------------------|---------------------------|
|-4---------------------------|-(4)-----------------------|
|-----------------------------|---------------------------|


  S S S S S S S S S S S S S S S S   S S S S S S S S S S S S S S S S
|-4-4-2-2-0-0-2-2-0-0-----0-0-2-2-|-4-4-2-2-0-0-2-2-0-0-----0-0-2-2--|
|---------------------4-4---------|---------------------4-4----------|
|---------------------------------|----------------------------------|
|---------------------------------|----------------------------------|
|---------------------------------|----------------------------------|
|---------------------------------|----------------------------------|
|
| W                                 W
|---------------------------------|----------------------------------|
|---------------------------------|----------------------------------|
|-2-------------------------------|-4--------------------------------|
|-2-------------------------------|-4--------------------------------|
|-0-------------------------------|-2--------------------------------|
|---------------------------------|----------------------------------|
|
| W                                 W
|---------------------------------|----------------------------------|
|---------------------------------|----------------------------------|
|---------------------------------|----------------------------------|
|-2-------------------------------|-4--------------------------------|
|-0-------------------------------|-2--------------------------------|
|---------------------------------|----------------------------------|


  Gtrs II, III
  E S S S S E E S S S S E    E  S S S S E S S S S E E
|-------------------------|---------------------------|
|-------------------------|---------------------------|
|-------------------------|---------------------------|
|-6-----------------------|--4----------6---------4-6-|
|-4-4-4-4-4-4-7-4-4-4-4-4-|--4--4-4-4-4---4-4-4-4-----|
|-------------------------|---------------------------|
|
| Gtr IV
| W                         +W
|-------------------------|---------------------------|
|-------------------------|---------------------------|
|-------------------------|---------------------------|
|-------------------------|---------------------------|
|-4-----------------------|-(4)-----------------------|
|-------------------------|---------------------------|


   E  S S S S E E S S S S E    E  S S S S E S S S S Q
|---------------------------|--------------------------|
|---------------------------|--------------------------|
|---------------------------|--------------------------|
|---------------------------|--4----------6---------4--|
|--4--4-4-4-4-4-7-4-4-4-4-4-|--4--4-4-4-4-4-4-4-4-4-4--|
|---------------------------|--------------------------|
|
| +W                          +W
|---------------------------|--------------------------|
|---------------------------|--------------------------|
|---------------------------|--------------------------|
|---------------------------|--------------------------|
|-(4)-----------------------|-(4)----------------------|
|---------------------------|--------------------------|


  E S S S S E S S S S E   S S    E  S S S S E S S S S E E
|-----------------------------|--2----------4---------2-4-|
|-5-2---2---5-2---2---5---2---|-----2---2-----2---2-------|
|-----------------------------|---------------------------|
|-----------------------------|---------------------------|
|-----------------------------|---------------------------|
|-----------------------------|---------------------------|
|
| Gtr III
| E S S S S E E   S S S S E      E  S S S S E S S S S E E
|-----------------------------|---------------------------|
|-----------------------------|---------------------------|
|-----------------------------|---------------------------|
|-6---------------------------|--4----------6---------4-6-|
|-4-4-4-4-4-4-7---4-4-4-4-4---|--4--4-4-4-4---4-4-4-4-----|
|-----------------------------|---------------------------|
|
| Gtr IV
| W                             +W
|-----------------------------|---------------------------|
|-----------------------------|---------------------------|
|-----------------------------|---------------------------|
|-----------------------------|---------------------------|
|-4---------------------------|-(4)-----------------------|
|-----------------------------|---------------------------|


  S S S S S S S S S S S S S S S S   S S S S S S S S S S S S S S S S
|-4-4-2-2-0-0-2-2-0-0-----0-0-2-2-|-4-4-2-2-0-0-2-2-0-0-----0-0-2-2--|
|---------------------4-4---------|---------------------4-4----------|
|---------------------------------|----------------------------------|
|---------------------------------|----------------------------------|
|---------------------------------|----------------------------------|
|---------------------------------|----------------------------------|
|
| W                                 W
|---------------------------------|----------------------------------|
|---------------------------------|----------------------------------|
|-2-------------------------------|-4--------------------------------|
|-2-------------------------------|-4--------------------------------|
|-0-------------------------------|-2--------------------------------|
|---------------------------------|----------------------------------|
|
| W                                 W
|---------------------------------|----------------------------------|
|---------------------------------|----------------------------------|
|---------------------------------|----------------------------------|
|-2-------------------------------|-4--------------------------------|
|-0-------------------------------|-2--------------------------------|
|---------------------------------|----------------------------------|


  Gtrs II, III
   Q  S S S S S S S S S S S S     S  S S S S S S S S S S S S S S S
|-----------------------------|------------------------------------|
|-----------------------------|------------------------------------|
|-----------------------------|------------------------------------|
|--2--------------------------|------------------------------------|
|--0--0-0-0-0-0-0-0-0-0-0-0-0-|---0--0-0-0-0-0-0-0-0-0-0-0-0-0-0-0-|
|-----------------------------|------------------------------------|
|
| Gtr IV
|  W                             +W
|-21--------------------------|-(21)-------------------------------|
|-14--------------------------|-(14)-------------------------------|
|-----------------------------|------------------------------------|
|-----------------------------|------------------------------------|
|-----------------------------|------------------------------------|
|-----------------------------|------------------------------------|


   Q  Q  E Q  E    +E  E. S Q  E Q
|---------------|-------------------|
|---------------|-------------------|
|--6--4--6-6--6-|--(6)-4----6----6--|
|--6--4--6-6--6-|--(6)-4----6--6-6--|
|--4--4--4-4--4-|--(4)-4----4--4-4--|
|---------------|-------------------|
|
|  W               +W
|-24------------|-(24)--------------|
|-17------------|-(17)--------------|
|---------------|-------------------|
|---------------|-------------------|
|---------------|-------------------|
|---------------|-------------------|


   Q  S S S S S S S S S S S S
|-----------------------------|
|-----------------------------|
|-----------------------------|
|--2--------------------------|
|--0--0-0-0-0-0-0-0-0-0-0-0-0-|
|-----------------------------|
|
|  W
|-29--------------------------|
|-22--------------------------|
|-----------------------------|
|-----------------------------|
|-----------------------------|
|-----------------------------|


    S  S S S  S S S S  S S S S  S S S S    W           W
|---------------------------------------|-----------|-------||
|---------------------------------------|-----------|-------||
|---------------------------------------|--4--------|-------||
|---------------------------------------|--4--------|--4----||
|---0--0-0-0--0-0-0-0--0-0-0-0--0-0-0-0-|--2--------|--4----||
|---------------------------------------|-----------|--2----||
|
|  +Q         Q        Q        Q          W           W
|-(29)-------28-------26-------24-------|-21--------|-23----||
|-(22)-------21-------19-------17-------|-14--------|-16----||
|---------------------------------------|-----------|-------||
|---------------------------------------|-----------|-------||
|---------------------------------------|-----------|-------||
|---------------------------------------|-----------|-------||


 Pre-Chorus
  $
   W              W             E S S S S S S S S S S S S S S
|--------------|-------------|--------------------------------|
|--------------|-------------|--------------------------------|
|--2-----------|-------------|--------------------------------|
|--2-----------|--2----------|--9-----------------------------|
|--0-----------|--2----------|--7-7-7-7-7-7-7-7-7-7-7-7-7-7-7-|
|--------------|--0----------|--------------------------------|
|
|  H.       Q     H     H       W
|-21-------23--|-24----26----|-26-----------------------------|
|-14-------16--|-17----19----|-19-----------------------------|
|--------------|-------------|--------------------------------|
|--------------|-------------|--------------------------------|
|--------------|-------------|--------------------------------|
|--------------|-------------|--------------------------------|


   E S S S S E S S S S S S S S
|-------------------------------|
|-------------------------------|
|-------------------------------|
|--9---------9------------------|
|--7-7-7-7-7-7-7-7-7-7-7-7-7-7--|
|-------------------------------|
|
|  W
|-24----------------------------|
|-17----------------------------|
|-------------------------------|
|-------------------------------|
|-------------------------------|
|-------------------------------|


   W              W             E S S S S S S S S S S S S S S
|--------------|-------------|--------------------------------|
|--------------|-------------|--------------------------------|
|--2-----------|-------------|--------------------------------|
|--2-----------|--2----------|--9-----------------------------|
|--0-----------|--2----------|--7-7-7-7-7-7-7-7-7-7-7-7-7-7-7-|
|--------------|--0----------|--------------------------------|
|
|  H.       Q     H     H       W
|-21-------23--|-24----26----|-24-----------------------------|
|-14-------16--|-17----19----|-17-----------------------------|
|--------------|-------------|--------------------------------|
|--------------|-------------|--------------------------------|
|--------------|-------------|--------------------------------|
|--------------|-------------|--------------------------------|


    E  S S S S E S S S S S S S S
|---------------------------------|
|---------------------------------|
|---------------------------------|
|---9----------9------------------|
|---7--7-7-7-7-7-7-7-7-7-7-7-7-7--|
|---------------------------------|
|
|  +W
|-(24)----------------------------|
|-(17)----------------------------|
|---------------------------------|
|---------------------------------|
|---------------------------------|
|---------------------------------|


   W              W             W             W
|--------------|-------------|-------------|-------------|
|--------------|-------------|-------------|-------------|
|--2-----------|--4----------|--9----------|--6----------|
|--2-----------|--4----------|--7----------|--6----------|
|--0-----------|--2----------|--7----------|--4----------|
|--------------|-------------|-------------|-------------|
|
|  H.       Q     H     H       H     H       H     H
|-21-------23--|-24----26----|-29----28----|-26----24----|
|-14-------16--|-17----19----|-22----21----|-19----17----|
|--------------|-------------|-------------|-------------|
|--------------|-------------|-------------|-------------|
|--------------|-------------|-------------|-------------|
|--------------|-------------|-------------|-------------|


   Q   S S Q  S S  S S S S    Q  S S Q    S S S S S S     Q   H.        W
|--------------------------|--------------------------|---------------|------||
|--------------------------|--------------------------|---------------|------||
|--2-------2---------------|--2------2----------------|---4-----------|------||
|--2-------2---------------|--2------2----------------|---4-----------|------||
|--0---0-0-0--0-0--0-0-0-0-|--0--0-0-0----0-0-0-0-0-0-|---2-----------|------||
|--------------------------|--------------------------|---------------|------||
|
|  H.              Q          H         H                +Q   H.        W
|-21--------------23-------|-24--------26-------------|-(26)----------|------||
|-14--------------16-------|-17--------19-------------|-(19)----------|------||
|--------------------------|--------------------------|---------------|------||
|--------------------------|--------------------------|---------------|------||
|--------------------------|--------------------------|---------------|------||
|--------------------------|--------------------------|---------------|------||


 Chorus
   W           W           W           +W
|-----------|-----------|-----------|-------------|
|-----------|-----------|-----------|-------------|
|-----------|-----------|--9--------|--(9)--------|
|--7--------|--9--------|--9--------|--(9)--------|
|--7--------|--9--------|--7--------|--(7)--------|
|--5--------|--7--------|-----------|-------------|
|
| Gtr III
|  W           W           W           +W
|-----------|-----------|-----------|-------------|
|-----------|-----------|-----------|-------------|
|-----------|-----------|-----------|-------------|
|--7--------|--9--------|--2--------|--(2)--------|
|--7--------|--9--------|--2--------|--(2)--------|
|--5--------|--7--------|--0--------|--(0)--------|
|
| Gtr IV
|  W           W           W           +W
|-21--------|-23--------|-----------|-------------|
|-17--------|-16--------|-17--------|-(17)--------|
|-18--------|-16--------|-16--------|-(16)--------|
|-----------|-----------|-----------|-------------|
|-----------|-----------|-----------|-------------|
|-----------|-----------|-----------|-------------|


   W           W           W           +W
|-----------|-----------|-----------|---------|
|-----------|-----------|-----------|---------|
|-----------|-----------|--9--------|--(9)----|
|--7--------|--9--------|--9--------|--(9)----|
|--7--------|--9--------|--7--------|--(7)----|
|--5--------|--7--------|-----------|---------|
|
|  W           W           W           +W
|-----------|-----------|-----------|---------|
|-----------|-----------|-----------|---------|
|-----------|-----------|-----------|---------|
|--7--------|--9--------|--2--------|--(2)----|
|--7--------|--9--------|--2--------|--(2)----|
|--5--------|--7--------|--0--------|--(0)----|
|
|  W           W           W           +W
|-21--------|-23--------|-----------|---------|
|-17--------|-16--------|-17--------|-(17)----|
|-18--------|-16--------|-16--------|-(16)----|
|-----------|-----------|-----------|---------|
|-----------|-----------|-----------|---------|
|-----------|-----------|-----------|---------|


  Gtrs II, III
   W           W           W           W
|-----------|-----------|-----------|-------|
|-----------|-----------|-----------|-------|
|-----------|-----------|--9--------|--6----|
|--7--------|--9--------|--9--------|--6----|
|--7--------|--9--------|--7--------|--4----|
|--5--------|--7--------|-----------|-------|
|
| Gtr IV
|  W           W           W           W
|-21--------|-23--------|-----------|-------|
|-17--------|-16--------|-17--------|-17----|
|-18--------|-16--------|-16--------|-18----|
|-----------|-----------|-----------|-------|
|-----------|-----------|-----------|-------|
|-----------|-----------|-----------|-------|


   E. S S S  E. S S S  E S S    E. S S S  E. S S S  E S S
|----------------------------|----------------------------|
|----------------------------|----------------------------|
|----------------------------|----------------------------|
|--7---------7---------7-----|--7---------7---------7-----|
|--7---------7---------7-----|--7---------7---------7-----|
|--5--5-5-5--5--5-5-5--5-5-5-|--5--5-5-5--5--5-5-5--5-5-5-|
|
|  Q.        Q.        Q        Q.        Q.        Q
|-21--------21--------21-----|-21--------23--------24-----|
|-17--------17--------17-----|-17--------19--------21-----|
|-18--------18--------18-----|-18--------20--------21-----|
|----------------------------|----------------------------|
|----------------------------|----------------------------|
|----------------------------|----------------------------|


                            To Coda
   E. S S S E. S S S E S S   Q  H.
|--------------------------|-----------||
|--------------------------|-----------||
|--------------------------|-----------||
|--9--------9--------9-----|-9---------||
|--9--------9--------9-----|-9---------||
|--7--7-7-7-7--7-7-7-7-7-7-|-7---------||
|
|  W                         W
|-23-----------------------|-----------||
|-19-----------------------|-----------||
|-20-----------------------|-----------||
|--------------------------|-----------||
|--------------------------|-----------||
|--------------------------|-----------||


 Bridge
   Q  E E E E E E     E  E E E E E   E   E
|---------0---2---|---4----2---4-----5---4-|
|--2--4-----------|------------------------|
|-------1---1---1-|------1---1---1---------|
|-----------------|------------------------|
|-----------------|------------------------|
|-----------------|------------------------|
|
| Gtr III
|  Q  E E E E E E     E  E E E E E   E   E
|-----------------|------------------------|
|-----------------|------------------------|
|--6--------------|----------------------6-|
|--6--------------|--------6---6---------6-|
|--4--4-4-4-4-4-4-|---4--4-4-4-4-4---4---4-|
|-----------------|------------------------|
|
| Gtr IV
|  W                 +H.            +E   E
|-16--------------|-(16)-----------(16)-16-|
|-14--------------|-(14)-----------(14)-14-|
|--1--------------|--(1)------------(1)--1-|
|-----------------|------------------------|
|-----------------|------------------------|
|-----------------|------------------------|


   +E  E E E E E E E     E  E E E E E   E    E
|--(4)-4---------0---|---2----0---4-----5--[16]--|
|--------2---4-------|---------------------------|
|----------1---1---1-|------1---1---1------------|
|--------------------|---------------------------|
|--------------------|---------------------------|
|--------------------|---------------------------|
|
|  +E  E E E E E E E     E  E E E E E   E    E
|--------------------|---------------------------|
|--------------------|---------------------------|
|--(6)---------------|-----------------------6---|
|--(6)-6-------------|--------6---6----------6---|
|--(4)-4-4-4-4-4-4-4-|---4--4-4-4-4-4---4----4---|
|--------------------|---------------------------|
|
|  +W                   +H.            +E    E
|-(16)---------------|-(16)-----------(16)--16---|
|-(14)---------------|-(14)-----------(14)--14---|
|--(1)---------------|--(1)------------(1)---1---|
|--------------------|---------------------------|
|--------------------|---------------------------|
|--------------------|---------------------------|


   +Q   E E E E E E     E  E E E E E   E   E
|-(16)----------0---|---2----0---4-----5---7-|
|-------2---4-------|------------------------|
|---------1---1---1-|------1---1---1---------|
|-------------------|------------------------|
|-------------------|------------------------|
|-------------------|------------------------|
|
|  +Q   E E E E E E     E  E E E E E   E   E
|-------------------|------------------------|
|-------------------|------------------------|
|--(6)--------------|------------------------|
|--(6)--------------|--------6---6---------2-|
|--(4)--4-4-4-4-4-4-|---4--4-4-4-4-4---4---2-|
|-------------------|----------------------0-|
|
|  +W                  +H.            +E   E
|-(16)--------------|-(16)-----------(16)-12-|
|-(14)--------------|-(14)-----------(14)-12-|
|--(1)--------------|--(1)------------(1)--4-|
|-------------------|------------------------|
|-------------------|------------------------|
|-------------------|------------------------|


   +E  E E E E E   E   E   +E  E E E E E   E   E
|--(7)-7-5-5-4-4---0---2-|-(2)-0-2-4-2-0----------|
|------------------------|-----------------4---2--|
|------------------------|------------------------|
|------------------------|------------------------|
|------------------------|------------------------|
|------------------------|------------------------|
|
|  +H.            +E   E   +H.            +E   E
|------------------------|------------------------|
|------------------------|------------------------|
|----------------------4-|-(4)------------(4)--6--|
|--(2)------------(2)--4-|-(4)------------(4)--6--|
|--(2)------------(2)--2-|-(2)------------(2)--4--|
|--(0)------------(0)----|------------------------|
|
|  +H.            +E   E    H.            +E   E
|-(12)-----------(12)-12-|-16------------(16)-16--|
|-(12)-----------(12)-12-|-14------------(14)-14--|
|--(4)------------(4)--4-|--1-------------(1)--1--|
|------------------------|------------------------|
|------------------------|------------------------|
|------------------------|------------------------|


  +E  E E E E E E E     E  E E E  E  S S   E   E
|-----------0---2---|---4----2---[4]-5-4---2---4-|
|-(2)-2-4-----------|----------------------------|
|---------1---1---1-|------1---1-----------------|
|-------------------|----------------------------|
|-------------------|----------------------------|
|-------------------|----------------------------|
|
| +E  E E E E E E E     E  E E E  E  E     E   E
|-------------------|----------------------------|
|-------------------|----------------------------|
|-(6)---------------|--------------------------6-|
|-(6)-6-------------|--------6----6------------6-|
|-(4)-4-4-4-4-4-4-4-|---4--4-4-4--4--4-----4---4-|
|-------------------|----------------------------|
|
|  W                   +H.                +E   E
|-16----------------|-(16)---------------(16)-16-|
|-14----------------|-(14)---------------(14)-14-|
|--1----------------|--(1)----------------(1)--1-|
|-------------------|----------------------------|
|-------------------|----------------------------|
|-------------------|----------------------------|


   +E  E E E E E E E     E  E E E E E   E    E
|--(4)-4---------0---|---2----0---5-2---0--[16]-|
|--------2---4-------|----------------------[9]-|
|----------1---1---1-|------1---1---------------|
|--------------------|--------------------------|
|--------------------|--------------------------|
|--------------------|--------------------------|
|
|  +E  E E E E E E E     E  E E E E E   E    E
|--------------------|--------------------------|
|--------------------|--------------------------|
|--(6)---------------|-----------------------6--|
|--(6)-6-------------|--------6---6----------6--|
|--(4)-4-4-4-4-4-4-4-|---4--4-4-4-4-4---4----4--|
|--------------------|--------------------------|
|
|  +W                   +H.            +E    E
|-(16)---------------|-(16)-----------(16)--16--|
|-(14)---------------|-(14)-----------(14)--14--|
|--(1)---------------|--(1)------------(1)---1--|
|--------------------|--------------------------|
|--------------------|--------------------------|
|--------------------|--------------------------|


   +Q    E E E E E E     E  E E E E E   E   E
|-(16)-----------0---|---2----0---4-----5---7-|
|--(9)---2---4-------|------------------------|
|----------1---1---1-|------1---1---1---------|
|--------------------|------------------------|
|--------------------|------------------------|
|--------------------|------------------------|
|
|  +E  E E E E E E E     E  E E E E E   E   E
|--------------------|------------------------|
|--------------------|------------------------|
|--(6)---------------|------------------------|
|--(6)-6-------------|--------6---6---------2-|
|--(4)-4-4-4-4-4-4-4-|---4--4-4-4-4-4---4---2-|
|--------------------|----------------------0-|
|
|  +W                   +H.            +E   E
|-(16)---------------|-(16)-----------(16)-12-|
|-(14)---------------|-(14)-----------(14)-12-|
|--(1)---------------|--(1)------------(1)--4-|
|--------------------|------------------------|
|--------------------|------------------------|
|--------------------|------------------------|


   +E  E E E E E   E   E    +E  E E E E E   E   E
|--(7)-7-5-5-4-4---0---2-|--(2)-0-2-4-2-0-------0--|
|------------------------|------------------4------|
|------------------------|-------------------------|
|------------------------|-------------------------|
|------------------------|-------------------------|
|------------------------|-------------------------|
|
|  +H.            +E   E    +H.            +E   E
|------------------------|-------------------------|
|------------------------|-------------------------|
|----------------------4-|--(4)------------(4)-----|
|--(2)------------(2)--4-|--(4)------------(4)--2--|
|--(2)------------(2)--2-|--(2)------------(2)--2--|
|--(0)------------(0)----|----------------------0--|
|
|  +H.            +E   E    +H.            +E   E
|-(12)-----------(12)-14-|-(14)-----------(14)-12--|
|-(12)-----------(12)-12-|-(12)-----------(12)-10--|
|--(4)------------(4)--4-|--(4)------------(4)--2--|
|------------------------|-------------------------|
|------------------------|-------------------------|
|------------------------|-------------------------|


               1.
                 ~~~~~~~~~~~~~~~~~~~~~~~~~~~~~~~~~~~~~~~~
                 |---3----|  |--3---|  |--3--|  |--3--|
   +W            E  E     E  E   E  E  E  E  E  E  E  E
|--(0)--------|-15-16----17-17--18-19-20-21-22-22-23-24-|
|-------------|-15-15----16-16--17-17-18-18-19-19-20-20-|
|-------------|-----------------------------------------|
|-------------|-----------------------------------------|
|-------------|-----------------------------------------|
|-------------|-----------------------------------------|
|
|  +W            Q           H.
|-------------|-----------------------------------------|
|-------------|-----------------------------------------|
|-------------|--2--------------------------------------|
|--(2)--------|--2--------------------------------------|
|--(2)--------|--0--------------------------------------|
|--(0)--------|-----------------------------------------|
|
|  +W            E    Q.               H
|-(12)--------|--5--------------------------------------|
|-(10)--------|-----------------------------------------|
|--(2)--------|--2--------------------------------------|
|-------------|-----------------------------------------|
|-------------|-----------------------------------------|
|-------------|-----------------------------------------|


 ~~~~~~~~~~~~~~~~~~~~~~~~~~~~~~~~~~~~~~~~~
   |---3----|  |--3---|  |--3--|  |--3--|
   E  E     E  E   E  E  E  E  E  E  E  E
|------------------------------------------||
|-13-14----15-16--17-18-19-20-21-22-23-24-o||
|-13-14----15-16--17-18-19-20-21-22-23-24--||
|------------------------------------------||
|-----------------------------------------o||
|------------------------------------------||
|
|  Q           H.
|------------------------------------------||
|-----------------------------------------o||
|------------------------------------------||
|--6---------------------------------------||
|--6--------------------------------------o||
|--4---------------------------------------||
|
|  E    Q.               H
|--4---------------------------------------||
|-----------------------------------------o||
|--1---------------------------------------||
|------------------------------------------||
|-----------------------------------------o||
|------------------------------------------||


  2.
  E.     S H.         E.     S H.
|-------------------|-------------------||
|-------------------|-------------------||
|-2-----------------|-------------------||
|-2-----------------|-6-----------------||
|-0-----------------|-6-----------------||
|-------------------|-4-----------------||
|
| W                   W
|-------------------|-------------------||
|-------------------|-------------------||
|-------------------|-------------------||
|-------------------|-------------------||
|-2b4r==============|=2b6r==============||
|-0b2r==============|=0b4r==============||
|
| E   Q.       H      E   Q.       H
|-5-----------------|-4-----------------||
|-------------------|-------------------||
|-2-----------------|-1-----------------||
|-------------------|-------------------||
|-------------------|-------------------||
|-------------------|-------------------||


 Pre-Solo Bridge
  Gtr I
  E E E E E   E E   E    E  E E E E   E E   E
|---------------------|-----------------------|
|---------------------|-----------------------|
|---------------------|-----------------------|
|-2-----2-------2-----|--4------4-------4-----|
|---2-----2-----------|-----2-----2-----------|
|-----0-------0-----0-|-------0-------0-----0-|
|
| E E E E S S E S S E    E  E E E S S E S S E
|---------------------|-----------------------|
|---------------------|-----------------------|
|---------------------|-----------------------|
|---------------------|-----------------------|
|-2-2-2-2-2-2-2-2-2-2-|--2--2-2-2-2-2-2-2-2-2-|
|-0-0-0-0-0-0-0-0-0-0-|--0--0-0-0-0-0-0-0-0-0-|
|
| W                      W
|---------------------|-----------------------|
|---------------------|-----------------------|
|-9-------------------|-11--------------------|
|-5-------------------|--7--------------------|
|---------------------|-----------------------|
|-0-------------------|-(0)-------------------|


   E   E E E E   E E   E    E    E E E E   E E   E
|------------------------|---------------------------|
|------------------------|---------------------------|
|--0-------0-------0-----|---------------------------|
|------------------------|--4--------0-------4-------|
|------2-----2-----------|-------2-----2-------------|
|--------0-------0-----0-|---------0-------0-----0---|
|
|  S S E E E S S E S S E    S  S E E E S S E S S E
|------------------------|---------------------------|
|------------------------|---------------------------|
|------------------------|---------------------------|
|------------------------|---------------------------|
|--2-2-2-2-2-2-2-2-2-2-2-|--2--2-2-2-2-2-2-2-2-2-2---|
|--0-0-0-0-0-0-0-0-0-0-0-|--0--0-0-0-0-0-0-0-0-0-0---|
|
|  W                        W
|------------------------|---------------------------|
|------------------------|---------------------------|
|-12---------------------|-11------------------------|
|--9---------------------|--7------------------------|
|------------------------|---------------------------|
|--0---------------------|-(0)-----------------------|


  E   E E E E   E E   E    E    E E E E   E E   E
|-----------------------|-------------------------|
|-----------------------|-------------------------|
|-----------------------|-------------------------|
|-2-------2-------2-----|--4--------4-------4-----|
|-----2-----2-----------|-------2-----2-----------|
|-------0-------0-----0-|---------0-------0-----0-|
|
| S S E E E S S E S S E    S  S E E E S S E S S E
|-----------------------|-------------------------|
|-----------------------|-------------------------|
|-----------------------|-------------------------|
|-----------------------|-------------------------|
|-2-2-2-2-2-2-2-2-2-2-2-|--2--2-2-2-2-2-2-2-2-2-2-|
|-0-0-0-0-0-0-0-0-0-0-0-|--0--0-0-0-0-0-0-0-0-0-0-|
|
| W                        W
|-----------------------|-------------------------|
|-----------------------|-------------------------|
|-9---------------------|-11----------------------|
|-5---------------------|--7----------------------|
|-----------------------|-------------------------|
|-0---------------------|-(0)---------------------|


   E   E E E E   E E   E    E    E E E E   E E   E
|------------------------|-------------------------|
|------------------------|-------------------------|
|--0-------0-------0-----|-------------------------|
|------------------------|--4--------0-------4-----|
|------2-----2-----------|-------2-----2-----------|
|--------0-------0-----0-|---------0-------0-----0-|
|
|  S S E E E S S E S S E    S  S E E E S S E S S E
|------------------------|-------------------------|
|------------------------|-------------------------|
|------------------------|-------------------------|
|------------------------|-------------------------|
|--2-2-2-2-2-2-2-2-2-2-2-|--2--2-2-2-2-2-2-2-2-2-2-|
|--0-0-0-0-0-0-0-0-0-0-0-|--0--0-0-0-0-0-0-0-0-0-0-|
|
|  W                        W
|------------------------|-------------------------|
|------------------------|-------------------------|
|-12---------------------|-11----------------------|
|--9---------------------|--7----------------------|
|------------------------|-------------------------|
|--0---------------------|-(0)---------------------|


   E E  E  E    E  E  E    E    E   E  E  E    E  E  E    E
|----------------------------|------------------------------|
|--0-------0----------0------|--1---------1----------1------|
|----------------------------|------------------------------|
|----2----------2------------|------2----------2------------|
|-------2----------2-------2-|---------2----------2-------2-|
|----------------------------|------------------------------|
|
|  E E  E  S S  E  E  S  S E    S S E  E  S S  E  E  S  S E
|----------------------------|------------------------------|
|----------------------------|------------------------------|
|----------------------------|------------------------------|
|----------------------------|------------------------------|
|--2-2--2--2-2--2--2--2--2-2-|--2-2-2--2--2-2--2--2--2--2-2-|
|--0-0--0--0-0--0--0--0--0-0-|--0-0-0--0--0-0--0--0--0--0-0-|
|
|  Q    Q      +Q     Q         Q      Q      +Q     Q
|-19---17------------19------|-20-----17------------14------|
|-20---19------------20------|-22-----19------------15------|
|--9----9-------------9------|--9------9-------------9------|
|----------------------------|------------------------------|
|----------------------------|------------------------------|
|--0---(0)-----(0)---(0)-----|--0-----(0)-----(0)---(0)-----|


   E   E  E  E    E  E  E    E    E   E  E  E    E  E  E    E
|------------------------------|-------------------------------|
|--0---------0----------0------|-------------------------------|
|------------------------------|--2---------0----------2-------|
|------2----------2------------|------2----------2-------------|
|---------2----------2-------2-|---------2----------2-------2--|
|------------------------------|-------------------------------|
|
|  S S E  E  S S  E  E  S  S E    S S E  E  S S  E  E  S  S E
|------------------------------|-------------------------------|
|------------------------------|-------------------------------|
|------------------------------|-------------------------------|
|------------------------------|-------------------------------|
|--2-2-2--2--2-2--2--2--2--2-2-|--2-2-2--2--2-2--2--2--2--2-2--|
|--0-0-0--0--0-0--0--0--0--0-0-|--0-0-0--0--0-0--0--0--0--0-0--|
|
|  Q      Q      +Q     Q         Q      Q      +Q     Q
|-15-----17------------19------|-19-----20------------17-------|
|-17-----19------------20------|-20-----22------------19-------|
|--9------9-------------9------|--9------9-------------9-------|
|------------------------------|-------------------------------|
|------------------------------|-------------------------------|
|--0-----(0)-----(0)---(0)-----|--0-----(0)-----(0)---(0)------|


   E   E  E  E    E  E  E    E    E   E  E  E    E  E  E    E
|------------------------------|------------------------------|
|--0---------0----------0------|--1---------1----------1------|
|------------------------------|------------------------------|
|------2----------2------------|------2----------2------------|
|---------2----------2-------2-|---------2----------2-------2-|
|------------------------------|------------------------------|
|
|  S S E  E  S S  E  E  S  S E    S S E  E  S S  E  E  S  S E
|------------------------------|------------------------------|
|------------------------------|------------------------------|
|------------------------------|------------------------------|
|------------------------------|------------------------------|
|--2-2-2--2--2-2--2--2--2--2-2-|--2-2-2--2--2-2--2--2--2--2-2-|
|--0-0-0--0--0-0--0--0--0--0-0-|--0-0-0--0--0-0--0--0--0--0-0-|
|
|  Q      Q      +Q     Q         Q      Q      +Q     Q
|-19-----17------------19------|-20-----17------------14------|
|-20-----19------------20------|-22-----19------------15------|
|--9------9-------------9------|--9------9-------------9------|
|------------------------------|------------------------------|
|------------------------------|------------------------------|
|--0-----(0)-----(0)---(0)-----|--0-----(0)-----(0)---(0)-----|


   E   E  E  E    E  E  E    E    E   E  E  E    E  E  E     E
|------------------------------|--------------------------------||
|--0---------0----------0------|--------------------------------||
|------------------------------|--2---------0----------2--------||
|------2----------2------------|------2----------2--------------||
|---------2----------2-------2-|---------2----------2--------2--||
|------------------------------|--------------------------------||
|
|  S S E  E  S S  E  E  S  S E    S S E  E  S S  E  E  S  S  E
|------------------------------|--------------------------------||
|------------------------------|--------------------------------||
|------------------------------|--------------------------------||
|------------------------------|--------------------------------||
|--2-2-2--2--2-2--2--2--2--2-2-|--2-2-2--2--2-2--2--2--2--2--2--||
|--0-0-0--0--0-0--0--0--0--0-0-|--0-0-0--0--0-0--0--0--0--0--0--||
|
|  Q      Q      +Q     Q         Q      Q      +Q     E    +E
|-15-----17------------19------|-19-----20------------17--------||
|-17-----19------------20------|-20-----22------------19--------||
|--9------9-------------9------|--9------9-------------9--------||
|------------------------------|--------------------------------||
|------------------------------|--------------------------------||
|--0-----(0)-----(0)---(0)-----|--0-----(0)-----(0)---(0)---(0)-||


 Solo 1
  Gtr II
  E S   S S S E +H            E  S    S S S E   +H
|--------------------------|-----------------------------------|
|--------------------------|-----------------------------------|
|--------------------------|-----------------------------------|
|-9-----------9-(9)--------|--9-------------9---(9)------------|
|-7-7---7-7-7-7-(7)--------|--7--7----7-7-7-7---(7)------------|
|--------------------------|-----------------------------------|
|
|   ~~~                 ~        ~~~~                       ~~
| E Q         E  E    E Q     E  Q          S S  S  S  S S  Q
|--------------------------|----------------7-7-10--7----------|
|-------------8--8b10-8----|--8--8b10-----------------10-8-10--|
|-7-7b9-----------------9--|-----------------------------------|
|--------------------------|-----------------------------------|
|--------------------------|-----------------------------------|
|--------------------------|-----------------------------------|
|
| W                          +W
|--------------------------|-----------------------------------|
|--------------------------|-----------------------------------|
|-9------------------------|-(9)-------------------------------|
|--------------------------|-----------------------------------|
|-7------------------------|-(7)-------------------------------|
|-0------------------------|-(0)-------------------------------|


  E S    S S S  S S  S    S S S S S S S    E.   E.   E +H
|---------------------------------------|----------------------|
|---------------------------------------|----------------------|
|---------------------------------------|----------------------|
|-9-------------------------------------|--9----7----9-(9)-----|
|-7-7----7-7-7--7-7--7----7-7-7-7-7-7-7-|--7----7----7-(7)-----|
|---------------------------------------|----------------------|
|
|   ~~~~                        ~~~~~~~~~~~~~~~~~~~~~~~~~~~~~~
| E Q           E    E      E   E   E      E  E    E E  Q   Q
|---------------------------------------|----------------------|
|-8-8b10-------10---10b12---8-----------|-----8----------------|
|-------------------------------9---7---|--9-------9-7--9---7--|
|---------------------------------------|----------------------|
|---------------------------------------|----------------------|
|---------------------------------------|----------------------|
|
| W                                       +W
|---------------------------------------|----------------------|
|---------------------------------------|----------------------|
|-9-------------------------------------|-(9)------------------|
|---------------------------------------|----------------------|
|-7-------------------------------------|-(7)------------------|
|-0-------------------------------------|-(0)------------------|


   E     S  S  S  S  S S  S  S  S  S  S  S  S S
|-----------------------------------------------|
|-----------------------------------------------|
|-----------------------------------------------|
|--7--------------------------------------------|
|--5-----5--5--5--5--5-5--5--5--5--5--5--5--5-5-|
|-----------------------------------------------|
|
|                    ~~                     ~~
|  S  S  S  S  S  S  E    S  S  S  S  S  S  E
|------------------------17-17-17-17-14-14-17---|
|-----------------------------------------------|
|-14-14-14-14-11-11-14--------------------------|
|-----------------------------------------------|
|-----------------------------------------------|
|-----------------------------------------------|
|
|  W
|-----------------------------------------------|
|-----------------------------------------------|
|--7--------------------------------------------|
|-----------------------------------------------|
|--5--------------------------------------------|
|-----------------------------------------------|


   S   S  S  S  S  S  S  S  S  S  S  S  S  S  S  S
|--------------------------------------------------|
|--------------------------------------------------|
|--------------------------------------------------|
|--------------------------------------------------|
|--5---5--5--5--5--5--5--5--5--5--5--5--5--5--5--5-|
|--------------------------------------------------|
|
|  S   S  S  S  S  S  S  S  S  S  S  S  S  S  S  S
|--------------------------17-17-17-17-14-17-14----|
|-15--15-15-15-10-10-15-15----------------------15-|
|--------------------------------------------------|
|--------------------------------------------------|
|--------------------------------------------------|
|--------------------------------------------------|
|
| +W
|--------------------------------------------------|
|--------------------------------------------------|
|-(7)----------------------------------------------|
|--------------------------------------------------|
|-(5)----------------------------------------------|
|--------------------------------------------------|


   E  S S S S  E +H              E  S    S S S  E +H
|-----------------------------|------------------------------------|
|-----------------------------|------------------------------------|
|-----------------------------|------------------------------------|
|--4-----------4-(4)----------|--7--------------7-(7)--------------|
|--2--2-2-2-2--2-(2)----------|--5--5----5-5-5--5-(5)--------------|
|-----------------------------|------------------------------------|
|
|     ~~          ~~~    ~~~~~      ~~~~~                       ~~
|  E  Q        E  E   E  E  E    E  Q           E  S   S  S  S  Q
|-----------------------------|------------------------------------|
|-----------------------------|------------------------------------|
|----12-----------------------|------------------------------------|
|-14----------14-12-----------|-12-12b14-------12------------------|
|--------------------14-12-14-|-------------------14--12p10h12p10--|
|-----------------------------|------------------------------------|
|
|  W                             W
|-----------------------------|------------------------------------|
|-----------------------------|------------------------------------|
|--4--------------------------|--7---------------------------------|
|-----------------------------|------------------------------------|
|--2--------------------------|--5---------------------------------|
|-----------------------------|------------------------------------|


   E.        E.        Q.              S  S  S  S
|-------------------------------------------------|
|-------------------------------------------------|
|-------------------------------------------------|
|--9---------7---------9--------------------------|
|--7---------7---------7---------------7--7--7--7-|
|-------------------------------------------------|
|
|  S   S  S  S   S  S  S   S  E  S  S  S  S  S  S
|-------------------------------------------------|
|----------------------------12-12-12-15-12-------|
|-----------11--12-11-12--14----------------14-12-|
|-14--12-14---------------------------------------|
|-------------------------------------------------|
|-------------------------------------------------|
|
|  W
|-------------------------------------------------|
|-------------------------------------------------|
|--9----------------------------------------------|
|-------------------------------------------------|
|--7----------------------------------------------|
|--0----------------------------------------------|


   E.   E.  E    +H
|------------------------------------|
|------------------------------------|
|------------------------------------|
|--9----7---9----(9)-----------------|
|--7----7---7----(7)-----------------|
|------------------------------------|
|
|  ~~~~~~                      ~~~~~
|  Q.       S  S  S   S  S  S  Q
|------------------------------------|
|------------------------------------|
|-15b17r=============12--------------|
|----------14-12-14-----14-12-14b16--|
|------------------------------------|
|------------------------------------|
|
| +W
|------------------------------------|
|------------------------------------|
|-(9)--------------------------------|
|------------------------------------|
|-(7)--------------------------------|
|-(0)--------------------------------|


   E  S  S  S S  S  S  S S  S    S  S  S  S  S
|----------------------------------------------|
|----------------------------------------------|
|----------------------------------------------|
|--9-------------------------------------------|
|--7--7--7--7-7--7--7--7-7--7----7--7--7--7--7-|
|----------------------------------------------|
|
|  E  S  S  E    S  S  E    E       S  S  S  S
|----------------------------------------------|
|----------------------------------------------|
|-------11-12---11-12-14---14b16---14-12-------|
|-14-14----------------------------------14-12-|
|----------------------------------------------|
|----------------------------------------------|
|
|  W
|----------------------------------------------|
|----------------------------------------------|
|--9-------------------------------------------|
|----------------------------------------------|
|--7-------------------------------------------|
|--0-------------------------------------------|


   E.     E.        E    +H
|-------------------------------------------------|
|-------------------------------------------------|
|-------------------------------------------------|
|--9------7---------9----(9)----------------------|
|--7------7---------7----(7)----------------------|
|-------------------------------------------------|
|
|  E   S  S   S  S  S  S  S   S  S  S  S  S  S  S
|------------------------19-----------------------|
|--------19--20----19-20-----22-20----20-------20-|
|-21--21--------21-----------------21----21-19----|
|-------------------------------------------------|
|-------------------------------------------------|
|-------------------------------------------------|
|
| +W
|-------------------------------------------------|
|-------------------------------------------------|
|-(9)---------------------------------------------|
|-------------------------------------------------|
|-(7)---------------------------------------------|
|-(0)---------------------------------------------|


   E     S  S  S  S  S  S  S  S  S  S  S  S  S  S
|-------------------------------------------------|
|-------------------------------------------------|
|-------------------------------------------------|
|--7----------------------------------------------|
|--5-----5--5--5--5--5--5--5--5--5--5--5--5--5--5-|
|-------------------------------------------------|
|
|  S  S  S  S  S  S  S  S  S  S  S  S  S  S  S  S
|-------------------------------------------------|
|-12-12-15-12-12-15-12-12-15-12-12-15-12-12-15-12-|
|-------------------------------------------------|
|-------------------------------------------------|
|-------------------------------------------------|
|-------------------------------------------------|
|
|  W
|-------------------------------------------------|
|-------------------------------------------------|
|--7----------------------------------------------|
|-------------------------------------------------|
|--5----------------------------------------------|
|-------------------------------------------------|


   S   S  S  S  S  S  S  S  S  S  S  S  S  S  S  S
|--------------------------------------------------|
|--------------------------------------------------|
|--------------------------------------------------|
|--------------------------------------------------|
|--5---5--5--5--5--5--5--5--5--5--5--5--5--5--5--5-|
|--------------------------------------------------|
|
|  S   S  S  S  S  S  S  S  S  S  S  S  S  S  S  S
|--------------------------------------------------|
|-10--10-13-10-10-13-10-10-13-10-10-13-10-10-13-10-|
|--------------------------------------------------|
|--------------------------------------------------|
|--------------------------------------------------|
|--------------------------------------------------|
|
| +W
|--------------------------------------------------|
|--------------------------------------------------|
|-(7)----------------------------------------------|
|--------------------------------------------------|
|-(5)----------------------------------------------|
|--------------------------------------------------|


   E     S  S  S  S  E    +H
|--------------------------------------------------|
|--------------------------------------------------|
|--------------------------------------------------|
|--4-----------------4----(4)----------------------|
|--2-----2--2--2--2--2----(2)----------------------|
|--------------------------------------------------|
|
|  S  S  S  S  S  S  S  S  S   S  S  S  S  S  S  S
|--------------------------------------------------|
|--------------------------------------------------|
|--------------------------------------------------|
|-12-16-12-12-12-16-12-12-16--12-12-16-12-12-16-12-|
|--------------------------------------------------|
|--------------------------------------------------|
|
|  W
|--------------------------------------------------|
|--------------------------------------------------|
|--4-----------------------------------------------|
|--------------------------------------------------|
|--2-----------------------------------------------|
|--------------------------------------------------|


   E     S  S  S  S  Q           E     Q
|-------------------------------------------------||
|-------------------------------------------------||
|-------------------------------------------------||
|--7-----------------7-----------7-----7----------||
|--5-----5--5--5--5--5-----------5-----5----------||
|-------------------------------------------------||
|
|  S  S  S  S  S  S  S  S  S  S  S  S  S  S  S  S
|-------------------------------------------------||
|-------------------------------------------------||
|-11-11-14-11-11-14-11-11-14-11-14-11-14-11-14-11-||
|-------------------------------------------------||
|-------------------------------------------------||
|-------------------------------------------------||
|
|  W
|-------------------------------------------------||
|-------------------------------------------------||
|--7----------------------------------------------||
|-------------------------------------------------||
|--5----------------------------------------------||
|-------------------------------------------------||


 Solo 2
   S  S  S  S  S  S  S  S  S  S  S  S  S  S  S  S
|-------------12h15-17-15-19-15----------12-15-12-|
|----------13-------------------15p13h15----------|
|-------12----------------------------------------|
|----14-------------------------------------------|
|-15----------------------------------------------|
|-------------------------------------------------|
|
|  H                       H
|-------------------------------------------------|
|-------------------------------------------------|
|-------------------------------------------------|
|--5----------------------------------------------|
|--3-----------------------5----------------------|
|--------------------------3----------------------|
|
|  H                       H
|-20----------------------22----------------------|
|-13----------------------15----------------------|
|--5----------------------------------------------|
|--------------------------5----------------------|
|--3----------------------------------------------|
|--------------------------3----------------------|


   S     S  S     S  S  S  S  S  Q.       +T   +X   +X       +X   +X       +X   +X
|-15b17-15-15b17-15-12-------15-----------------------------------------------------|
|----------------------13-------15b19====(15)-(15)r(15)b19==(15)r(15)b19==(15)r(15)-|
|-------------------------12--------------------------------------------------------|
|-----------------------------------------------------------------------------------|
|-----------------------------------------------------------------------------------|
|-----------------------------------------------------------------------------------|
|
|  H                             H
|-----------------------------------------------------------------------------------|
|-----------------------------------------------------------------------------------|
|-----------------------------------------------------------------------------------|
|--7-----------------------------9--------------------------------------------------|
|--5-----------------------------7--------------------------------------------------|
|-----------------------------------------------------------------------------------|
|
|  H                             H
|-22----------------------------19--------------------------------------------------|
|-15----------------------------12--------------------------------------------------|
|--7-----------------------------9--------------------------------------------------|
|-----------------------------------------------------------------------------------|
|--5-----------------------------7--------------------------------------------------|
|-----------------------------------------------------------------------------------|


   ~~~~~~~~~~~~~~~~~~~~~~~~~~~~~~~~~~~~~~~~~~~~~~~~~
   H              H                H              H
|-19-------------15-------------|----------------------|
|-20-------------17-------------|-17-------------------|
|-------------------------------|-16-------------16----|
|-------------------------------|----------------17----|
|-------------------------------|----------------------|
|-------------------------------|----------------------|
|
|  E S S S S S S  E S S S S S S    E S S S S S S  H
|-------------------------------|----------------------|
|-------------------------------|----------------------|
|-------------------------------|----------------------|
|--5--------------5-------------|--7--------------7----|
|--3-3-3-3-3-3-3--3-3-3-3-3-3-3-|--5-5-5-5-5-5-5--5----|
|-------------------------------|----------------------|
|
|  W                               W
|-------------------------------|----------------------|
|-13----------------------------|----------------------|
|--5----------------------------|--7-------------------|
|-------------------------------|----------------------|
|--3----------------------------|--5-------------------|
|-------------------------------|----------------------|


   T                 T
   S  S  S  S  S  S  S  S  S  S  S  S  S  S  S  S
|-17-14p11h14p11----------------------------------|
|----------------13-16-13p10h13p10----------13p12-|
|----------------------------------12----12-------|
|-------------------------------------14----------|
|-------------------------------------------------|
|-------------------------------------------------|
|
|  H                       H
|-------------------------------------------------|
|-------------------------------------------------|
|-------------------------------------------------|
|--5----------------------------------------------|
|--3-----------------------5----------------------|
|--------------------------3----------------------|
|
|  H                       H
|-20----------------------22----------------------|
|-13----------------------15----------------------|
|--5----------------------------------------------|
|--------------------------5----------------------|
|--3----------------------------------------------|
|--------------------------3----------------------|


                        ~~~~~~~~~~~~~~~
   S  S  S  S  S  S  S  H          +S
|----------10-14-10-14-19b21------(19)-|
|-------10-----------------------------|
|----11--------------------------------|
|-12-----------------------------------|
|--------------------------------------|
|--------------------------------------|
|
|  H                          H
|--------------------------------------|
|--------------------------------------|
|--------------------------------------|
|--7--------------------------9--------|
|--5--------------------------7--------|
|--------------------------------------|
|
|  H                          H
|-26-------------------------24--------|
|-19-------------------------17--------|
|--7--------------------------5--------|
|--------------------------------------|
|--5--------------------------3--------|
|--------------------------------------|


   S  S  S  S  S  S  S  S  S  S  S  S  S  S  S  S
|----------17-20-19-17----------17-17-------------|
|-------17-------------20-19-20-------20-20-19-17-|
|----17-------------------------------------------|
|-19----------------------------------------------|
|-------------------------------------------------|
|-------------------------------------------------|
|
|  E     S  S  S  S  S  S  E     S  S  S  S  S  S
|-------------------------------------------------|
|-------------------------------------------------|
|-------------------------------------------------|
|--2-----------------------2----------------------|
|--0-----0--0--0--0--0--0--0-----0--0--0--0--0--0-|
|-------------------------------------------------|
|
|  W
|-------------------------------------------------|
|-10----------------------------------------------|
|--2----------------------------------------------|
|-------------------------------------------------|
|--0----------------------------------------------|
|-------------------------------------------------|


   S  S  S  S  S  S  S  S  S  S  S  S  S  S  S  S
|-------------------------14p12h14p12-15p14h15p14-|
|-15p13h15p13-17p15h17p15-15p13h15p13-17p15h17p15-|
|-16p14h16p14-17p16h17p16-------------------------|
|-------------------------------------------------|
|-------------------------------------------------|
|-------------------------------------------------|
|
|  E     S  S  S  S  S  S  H
|-------------------------------------------------|
|-------------------------------------------------|
|-------------------------------------------------|
|--7-----------------------7----------------------|
|--5-----5--5--5--5--5--5--5----------------------|
|-------------------------------------------------|
|
|  W
|-10----------------------------------------------|
|--3----------------------------------------------|
|-------------------------------------------------|
|--0----------------------------------------------|
|-------------------------------------------------|
|-------------------------------------------------|


   E   E    E  E    H          W                   W
|-17--17---17-17------------|-------------------|-------||
|-19--19---19-19------------|-------------------|-------||
|---------------------------|-------------------|-------||
|---------------------------|-------------------|-------||
|---------------------------|-------------------|-------||
|---------------------------|-------------------|-------||
|
|  E.    Q       S  E. Q  S    E. Q  S  E. Q  S    W
|---------------------------|-------------------|-------||
|---------------------------|-------------------|-------||
|---------------------------|-------------------|-------||
|--9----------------7-------|--5----------------|--4----||
|--7----------------5-------|--3--------5-------|--2----||
|---------------------------|-----------3-------|-------||
|
|  E.    Q       S  E. Q  S    E. Q  S  E. Q  S    W
|-24---------------22-------|-20-------15-------|-19----||
|-22---------------22-------|-20-------15-------|-19----||
|-21---------------19-------|-17-------12-------|-16----||
|---------------------------|-------------------|-------||
|---------------------------|-------------------|-------||
|---------------------------|-------------------|-------||


 Solo 3
   T     T     T     T     T     T     T     T
   S  S  S  S  S  S  S  S  S  S  S  S  S  S  S  S
|-------------------------------------------------|
|-17-14-17-14-17-14-17-14-19-14-19-14-17-14-17-14-|
|-------------------------------------------------|
|-------------------------------------------------|
|-------------------------------------------------|
|-------------------------------------------------|
|
|  E     S  S  S  S  S  S  E     S  S  S  S  E
|-------------------------------------------------|
|-------------------------------------------------|
|-------------------------------------------------|
|--6----------------------------------------------|
|--4-----4--4--4--4--4--4--7-----4--4--4--4--4----|
|-------------------------------------------------|
|
|  W
|-------------------------------------------------|
|-------------------------------------------------|
|-------------------------------------------------|
|-------------------------------------------------|
|--4----------------------------------------------|
|-------------------------------------------------|


   T      T     T     T     T     T     T     T
   S   S  S  S  S  S  S  S  S  S  S  S  S  S  S  S
|---------------------------------------------------|
|-21--14-21-14-21-14-19-14-19-14-19-14-17-14-17-14--|
|---------------------------------------------------|
|---------------------------------------------------|
|---------------------------------------------------|
|---------------------------------------------------|
|
|  E      S  S  S  S  E     S  S  S  S  E     E
|---------------------------------------------------|
|---------------------------------------------------|
|---------------------------------------------------|
|--4------------------6-----------------4-----6-----|
|--4------4--4--4--4--------4--4--4--4--------------|
|---------------------------------------------------|
|
| +W
|---------------------------------------------------|
|---------------------------------------------------|
|---------------------------------------------------|
|---------------------------------------------------|
|-(4)-----------------------------------------------|
|---------------------------------------------------|


   S   S  S  S  S  S  S  S  S  S  S  S  S  S  S  S
|--------------------------------------------------|
|-21--21-17-17-21-21-17-17-------------------------|
|--------------------------21-21-18-18-21-21-18-18-|
|--------------------------------------------------|
|--------------------------------------------------|
|--------------------------------------------------|
|
|  E      S  S  S  S  S  S  E     S  S  S  S  E
|--------------------------------------------------|
|--------------------------------------------------|
|--------------------------------------------------|
|--6-----------------------------------------------|
|--4------4--4--4--4--4--4--7-----4--4--4--4--4----|
|--------------------------------------------------|
|
| +W
|--------------------------------------------------|
|--------------------------------------------------|
|--------------------------------------------------|
|--------------------------------------------------|
|-(4)----------------------------------------------|
|--------------------------------------------------|


   S   S  S  S  Q      S  S  S  S   Q
|---------------------------------------|
|-21--17----17-21-----------------------|
|--------18-----------21----18-18-[16]--|
|------------------------18-------------|
|---------------------------------------|
|---------------------------------------|
|
|  E      S  S  S S E  S  S  S  S   Q
|---------------------------------------|
|---------------------------------------|
|---------------------------------------|
|--4----------------6---------------4---|
|--4------4--4--4-4-4--4--4--4--4---4---|
|---------------------------------------|
|
| +W
|---------------------------------------|
|---------------------------------------|
|---------------------------------------|
|---------------------------------------|
|-(4)-----------------------------------|
|---------------------------------------|


   S  S  S  S  S  S  S  S  S  S  S  S  S  S  S  S
|-------------------------------------------------|
|-------------------------------------------------|
|-------------------------11-11-13-13-11-11-------|
|-------11-11-14-14-11-11-------------------14-14-|
|-14-14-------------------------------------------|
|-------------------------------------------------|
|
|  E     S  S  S  S  S  S  E     S  S  S  S  E
|-------------------------------------------------|
|-------------------------------------------------|
|-------------------------------------------------|
|--6----------------------------------------------|
|--4-----4--4--4--4--4--4--7-----4--4--4--4--4----|
|-------------------------------------------------|
|
|  W
|-------------------------------------------------|
|-------------------------------------------------|
|-------------------------------------------------|
|-------------------------------------------------|
|--4----------------------------------------------|
|-------------------------------------------------|


   S   S  S  S  S  S  S  S  S  S  S  S  S  S  S  S
|--------------------------14-14-16-16-14-14--------|
|--------14-14-17-17-14-14-------------------17-17--|
|-16--16--------------------------------------------|
|---------------------------------------------------|
|---------------------------------------------------|
|---------------------------------------------------|
|
|  E      S  S  S  S  E     S  S  S  S  E     E
|---------------------------------------------------|
|---------------------------------------------------|
|---------------------------------------------------|
|--4------------------6-----------------4-----6-----|
|--4------4--4--4--4--------4--4--4--4--------------|
|---------------------------------------------------|
|
| +W
|---------------------------------------------------|
|---------------------------------------------------|
|---------------------------------------------------|
|---------------------------------------------------|
|-(4)-----------------------------------------------|
|---------------------------------------------------|


   E  E  E  E.   S  E  E  E       +E   E  E  E   H
|----19-19-19b21---19----19b21-|-(19)-19---------------|
|-21------------------21-------|---------21-17-[19]----|
|------------------------------|---------------[11]----|
|------------------------------|-----------------------|
|------------------------------|-----------------------|
|------------------------------|-----------------------|
|
|  W                               W
|------------------------------|-----------------------|
|------------------------------|-----------------------|
|--2---------------------------|---4-------------------|
|--2---------------------------|---4-------------------|
|--0---------------------------|---2-------------------|
|------------------------------|-----------------------|
|
|  W                               W
|------------------------------|-----------------------|
|------------------------------|-----------------------|
|------------------------------|-----------------------|
|--2---------------------------|---4-------------------|
|--0---------------------------|---2-------------------|
|------------------------------|-----------------------|


   Q         Q           Q         E    E    E   E    E    Q       Q.
|-14b16-----14b16-------14b16-----14------|-14--16---14----------------------|
|--------------------------------------17-|---------------17-----[14]--------|
|-----------------------------------------|-----------------------[6]--------|
|-----------------------------------------|----------------------------------|
|-----------------------------------------|----------------------------------|
|-----------------------------------------|----------------------------------|
|
|  E    S S  S    S S S  E    S S  S S  E    E   S S  S S  E S S   S  S E E
|-----------------------------------------|----------------------------------|
|-----------------------------------------|----------------------------------|
|-----------------------------------------|----------------------------------|
|--6--------------------------------------|--4-------------6------------4-6--|
|--4----4-4--4----4-4-4--7----4-4--4-4--4-|--4---4-4--4-4----4-4---4--4------|
|-----------------------------------------|----------------------------------|
|
|  W                                        +W
|-----------------------------------------|----------------------------------|
|-----------------------------------------|----------------------------------|
|-----------------------------------------|----------------------------------|
|-----------------------------------------|----------------------------------|
|--4--------------------------------------|-(4)------------------------------|
|-----------------------------------------|----------------------------------|


   S   S  S  S  S  S  S  S  S  S  S  S  S  S  S  S
|--------------------------------------16----16-17-|
|-----------16-17----16-17-19-16-17-19----19-------|
|-18--16-18-------18-------------------------------|
|--------------------------------------------------|
|--------------------------------------------------|
|--------------------------------------------------|
|
|  E      S  S  S  S  S  S  E     S  S  S  S  E
|--------------------------------------------------|
|--------------------------------------------------|
|--------------------------------------------------|
|--6-----------------------------------------------|
|--4------4--4--4--4--4--4--7-----4--4--4--4--4----|
|--------------------------------------------------|
|
| +W
|--------------------------------------------------|
|--------------------------------------------------|
|--------------------------------------------------|
|--------------------------------------------------|
|-(4)----------------------------------------------|
|--------------------------------------------------|


   S   S  E    E    E  S  S  E    E  E
|-19--19-19---16---19------------------|
|---------------------17-17-17---14-17-|
|--------------------------------------|
|--------------------------------------|
|--------------------------------------|
|--------------------------------------|
|
|  E      S S  S S  E  S  S  S S  Q
|--------------------------------------|
|--------------------------------------|
|--------------------------------------|
|--4----------------6-------------4----|
|--4------4-4--4-4--4--4--4--4-4--4----|
|--------------------------------------|
|
| +W
|--------------------------------------|
|--------------------------------------|
|--------------------------------------|
|--------------------------------------|
|-(4)----------------------------------|
|--------------------------------------|


   T        T          T          T          T        T          T          T
   |--3--|  |---3---|  |---3---|  |---3---|  |--3--|  |---3---|  |---3---|  |--3--|
   S  S  S  S  S    S  S  S    S  S  S    S  S  S  S  S  S    S  S  S    S  S  S  S
|-----------------------------------------------------------------------------------|
|-----------------------------------------------------------------------------------|
|-21-18p13-21-18p==13-20-18p==13-21-18p==13-21-18p13-21-18p==13-20-18p==13-20-18p13-|
|-----------------------------------------------------------------------------------|
|-----------------------------------------------------------------------------------|
|-----------------------------------------------------------------------------------|
|
|  E        S    S     S    S     S    S     E        S    S     S    S     E
|-----------------------------------------------------------------------------------|
|-----------------------------------------------------------------------------------|
|-----------------------------------------------------------------------------------|
|--6--------------------------------------------------------------------------------|
|--4--------4----4-----4----4-----4----4-----7--------4----4-----4----4-----4-------|
|-----------------------------------------------------------------------------------|
|
|  W
|-----------------------------------------------------------------------------------|
|-----------------------------------------------------------------------------------|
|-----------------------------------------------------------------------------------|
|-----------------------------------------------------------------------------------|
|--4--------------------------------------------------------------------------------|
|-----------------------------------------------------------------------------------|


   T         T          T          T        T          T          T        T
   |--3---|  |---3---|  |---3---|  |--3--|  |---3---|  |---3---|  |--3--|  |--3--|
   S   S  S  S  S    S  S  S    S  S  S  S  S  S    S  S  S    S  S  S  S  S  S  S
|------------------------------------------21-16p==12-21-16p==12-19-16p12-21-16p12-|
|-21--17p14-21-17p==14-19-17p==14-21-17p14-----------------------------------------|
|----------------------------------------------------------------------------------|
|----------------------------------------------------------------------------------|
|----------------------------------------------------------------------------------|
|----------------------------------------------------------------------------------|
|
|  E         S    S     S    S     E        S    S     S    S     E        E
|----------------------------------------------------------------------------------|
|----------------------------------------------------------------------------------|
|----------------------------------------------------------------------------------|
|--4-------------------------------6------------------------------4--------6-------|
|--4---------4----4-----4----4--------------4----4-----4----4----------------------|
|----------------------------------------------------------------------------------|
|
| +W
|----------------------------------------------------------------------------------|
|----------------------------------------------------------------------------------|
|----------------------------------------------------------------------------------|
|----------------------------------------------------------------------------------|
|-(4)------------------------------------------------------------------------------|
|----------------------------------------------------------------------------------|


   a  E  E  E  S  S  S  S  S  S  E  S  S    E  E  E  E   H
|-14-16-19-19-19-17-16----------16-------|-16-19-16----[14]----||
|----------------------19-17-19----17-19-|----------17--[7]----||
|----------------------------------------|---------------------||
|----------------------------------------|---------------------||
|----------------------------------------|---------------------||
|----------------------------------------|---------------------||
|
|     W                                     W
|----------------------------------------|---------------------||
|----------------------------------------|---------------------||
|-----2----------------------------------|--4------------------||
|-----2----------------------------------|--4------------------||
|-----0----------------------------------|--2------------------||
|----------------------------------------|---------------------||
|
|     W                                     W
|----------------------------------------|---------------------||
|----------------------------------------|---------------------||
|----------------------------------------|---------------------||
|-----2----------------------------------|--4------------------||
|-----0----------------------------------|--2------------------||
|----------------------------------------|---------------------||


 Solo 4
   Q.          Q        E    E    E      Q         E    Q.            E    E
|-------------------------------------|----------------------------------------|
|-17----------16-------12---14---16---|-17--------16---14------------14---16---|
|-------------------------------------|----------------------------------------|
|-------------------------------------|----------------------------------------|
|-------------------------------------|----------------------------------------|
|-------------------------------------|----------------------------------------|
|
|  E  S S S S  S S S S  S S  S S  S S    S  S S S  S S  S  S S S S S  S S  S S
|-------------------------------------|----------------------------------------|
|-------------------------------------|----------------------------------------|
|-------------------------------------|----------------------------------------|
|--2----------------------------------|----------------------------------------|
|--0--0-0-0-0--0-0-0-0--0-0--0-0--0-0-|--0--0-0-0--0-0--0--0-0-0-0-0--0-0--0-0-|
|-------------------------------------|----------------------------------------|
|
|  W                                    +W
|-------------------------------------|----------------------------------------|
|-------------------------------------|----------------------------------------|
|--2----------------------------------|-(2)------------------------------------|
|--2----------------------------------|-(2)------------------------------------|
|--0----------------------------------|-(0)------------------------------------|
|-------------------------------------|----------------------------------------|


   S  S  S  S  E  E  E  E  E    E      E   E  E   E   H
|-----------------------------------|-----16-17-------------|
|-16-17-19-17-16-17-19-21-19---17---|-19---------19-[17]----|
|-----------------------------------|-----------------------|
|-----------------------------------|-----------------------|
|-----------------------------------|-----------------------|
|-----------------------------------|-----------------------|
|
|  Q           H           S S  S S    Q      H.
|-----------------------------------|-----------------------|
|-----------------------------------|-----------------------|
|--6-----------6--------------------|--6------6-------------|
|--6-----------6--------------------|--6------6-------------|
|--4-----------4-----------4-4--4-4-|--4------4-------------|
|-----------------------------------|-----------------------|
|
|  W                                  +W
|-----------------------------------|-----------------------|
|-----------------------------------|-----------------------|
|-----------------------------------|-----------------------|
|--6--------------------------------|-(6)-------------------|
|--4--------------------------------|-(4)-------------------|
|-----------------------------------|-----------------------|


   S  S  S  S  S  S  S  S  S  S  S  S  S  S  S  S
|-------------------------------------------------|
|-------------------------------------------------|
|-------------------------------------------------|
|----------------------------------------11-13-15-|
|----11-12-11----------11----11-12-11-12----------|
|-11----------14-11-14----14----------------------|
|
|  E     S  S  S  S  S  S  S  S  S  S  S  S  S  S
|-------------------------------------------------|
|-------------------------------------------------|
|-------------------------------------------------|
|--2----------------------------------------------|
|--0-----0--0--0--0--0--0--0--0--0--0--0--0--0--0-|
|-------------------------------------------------|
|
|  W
|-------------------------------------------------|
|-------------------------------------------------|
|--2----------------------------------------------|
|--2----------------------------------------------|
|--0----------------------------------------------|
|-------------------------------------------------|


   S   S  S  S  S  S  S  S  S  S  S  S  S  S  S  S
|--------------------------------------------------|
|--------------------------------------12-14-12-14-|
|--------13-14-13-11----11-13-14-13-14-------------|
|-13--11-------------14----------------------------|
|--------------------------------------------------|
|--------------------------------------------------|
|
|  S   S  S  S  S  S  S  S  S  S  S  S  S  S  S  S
|--------------------------------------------------|
|--------------------------------------------------|
|--------------------------------------------------|
|--------------------------------------------------|
|--0---0--0--0--0--0--0--0--0--0--0--0--0--0--0--0-|
|--------------------------------------------------|
|
| +W
|--------------------------------------------------|
|--------------------------------------------------|
|-(2)----------------------------------------------|
|-(2)----------------------------------------------|
|-(0)----------------------------------------------|
|--------------------------------------------------|


   S  S  E  S  S  S  S  S  S  S  S  S  S  E    S  S  S  S  S  S   H      +E
|-14-16-17-21-14-21-14-21-17----------------|----------------------------------||
|----------------------------19-------------|----------------------------------||
|-------------------------------18-------16-|-13h14p13h14-11----[18]----(18)---||
|----------------------------------19-------|----------------14----------------||
|-------------------------------------21----|----------------------------------||
|-------------------------------------------|----------------------------------||
|
|  W                                           W
|-------------------------------------------|----------------------------------||
|-------------------------------------------|----------------------------------||
|-------------------------------------------|--4-------------------------------||
|--4----------------------------------------|--4-------------------------------||
|--4----------------------------------------|--2-------------------------------||
|--2----------------------------------------|----------------------------------||
|
|  W                                           W
|-------------------------------------------|----------------------------------||
|-------------------------------------------|----------------------------------||
|-------------------------------------------|--4-------------------------------||
|--4----------------------------------------|--4-------------------------------||
|--4----------------------------------------|--2-------------------------------||
|--2----------------------------------------|----------------------------------||


 Twin Solo 1
   S  S S  S S  S  S  S S  S  S  S  S  S S  S
|---------------------------------------------|
|-------------------------------10------------|
|-------9-11-9----------9-11-13----13-11-9----|
|-11-13--------13-11-13--------------------13-|
|---------------------------------------------|
|---------------------------------------------|
|
|  S  S S  S S  S  S  S S  S  S  S  S  S S  S
|--------------------------------9------------|
|-------9-10-9----------9-10-12----12-10-9----|
|--9-11--------11--9-11--------------------11-|
|---------------------------------------------|
|---------------------------------------------|
|---------------------------------------------|
|
|  W
|-21------------------------------------------|
|-14------------------------------------------|
|---------------------------------------------|
|---------------------------------------------|
|--4------------------------------------------|
|---------------------------------------------|


    S   S S  S S  S  S  S  S S  S  S   Q
|---------------------------------------------|
|---------------------------------------------|
|---------9-11-9----------11-9----------------|
|--11--13--------13-11-13------13-11---9------|
|---------------------------------------------|
|---------------------------------------------|
|
|   S   S S  S S  S  S  S  S S  S  S   Q
|---------------------------------------------|
|---------9-10-9----------10-9----------------|
|---9--11--------11--9-11------11--9---8------|
|---------------------------------------------|
|---------------------------------------------|
|---------------------------------------------|
|
|  +H.                                +E   E
|-(21)-------------------------------(21)-----|
|-(14)-------------------------------(14)-24--|
|-----------------------------------------16--|
|---------------------------------------------|
|--(4)--------------------------------(4)--2--|
|---------------------------------------------|


   S  S S  S S  S  S  S S  S  S  S  S  S S  S
|---------------------------------------------|
|-------------------------------10------------|
|-------9-11-9----------9-11-13----13-11-9----|
|-11-13--------13-11-13--------------------13-|
|---------------------------------------------|
|---------------------------------------------|
|
|  S  S S  S S  S  S  S S  S  S  S  S  S S  S
|--------------------------------9------------|
|-------9-10-9----------9-10-12----12-10-9----|
|--9-11--------11--9-11--------------------11-|
|---------------------------------------------|
|---------------------------------------------|
|---------------------------------------------|
|
|  W
|-21------------------------------------------|
|-14------------------------------------------|
|---------------------------------------------|
|---------------------------------------------|
|--4------------------------------------------|
|---------------------------------------------|


    S   S S  S S  S  S  S  S S  S  S   Q
|------------------------------------------------|
|------------------------------------------------|
|---------9-11-9----------11-9--------[9]b11-----|
|--11--13--------13-11-13------13-11-------------|
|------------------------------------------------|
|------------------------------------------------|
|
|   S   S S  S S  S  S  S  S S  S  S   Q
|------------------------------------------------|
|---------9-10-9----------10-9-------[10]b12-----|
|---9--11--------11--9-11------11--9-------------|
|------------------------------------------------|
|------------------------------------------------|
|------------------------------------------------|
|
|  +H.                                +E      E
|-(21)-------------------------------(21)--------|
|-(14)-------------------------------(14)----24--|
|--------------------------------------------16--|
|------------------------------------------------|
|--(4)--------------------------------(4)-----2--|
|------------------------------------------------|


   S  S S  S S  S  S  S S  S  S  S  S  S S  S
|---------------------------------------------|
|-------------------------------10------------|
|-------9-11-9----------9-11-13----13-11-9----|
|-11-13--------13-11-13--------------------13-|
|---------------------------------------------|
|---------------------------------------------|
|
|  S  S S  S S  S  S  S S  S  S  S  S  S S  S
|--------------------------------9------------|
|-------9-10-9----------9-10-12----12-10-9----|
|--9-11--------11--9-11--------------------11-|
|---------------------------------------------|
|---------------------------------------------|
|---------------------------------------------|
|
|  W
|-21------------------------------------------|
|-14------------------------------------------|
|---------------------------------------------|
|---------------------------------------------|
|--4------------------------------------------|
|---------------------------------------------|


    S   S S  S S  S  S  S  S S  S  E        E.
|-----------------------------------------(14)----|
|-------------------------------------------------|
|---------9-11-9----------11-9--------------------|
|--11--13--------13-11-13------13-11--------------|
|-------------------------------------------------|
|-------------------------------------------------|
|
|   S   S S  S S  S  S  S  S S  S  E        E.
|------------------------------------------14-----|
|---------9-10-9----------10-9--------------------|
|---9--11--------11--9-11------11--9--------------|
|-------------------------------------------------|
|-------------------------------------------------|
|-------------------------------------------------|
|
|  +H.                                +E        E
|-(21)-------------------------------(21)---------|
|-(14)-------------------------------(14)------24-|
|----------------------------------------------16-|
|-------------------------------------------------|
|--(4)--------------------------------(4)-------2-|
|-------------------------------------------------|


   S  S S  S S  S  S  S S  S  S  S  S  S S  S
|---------------------------------------------|
|-------------------------------10------------|
|-------9-11-9----------9-11-13----13-11-9----|
|-11-13--------13-11-13--------------------13-|
|---------------------------------------------|
|---------------------------------------------|
|
|  S  S S  S S  S  S  S S  S  S  S  S  S S  S
|--------------------------------9------------|
|-------9-10-9----------9-10-12----12-10-9----|
|--9-11--------11--9-11--------------------11-|
|---------------------------------------------|
|---------------------------------------------|
|---------------------------------------------|
|
|  W
|-21------------------------------------------|
|-14------------------------------------------|
|---------------------------------------------|
|---------------------------------------------|
|--4------------------------------------------|
|---------------------------------------------|


                                       ~~~~
    S   S S  S S  S  S  S  S S  S  S   Q
|---------------------------------------------||
|---------------------------------------------||
|---------9-11-9----------11-9----------------||
|--11--13--------13-11-13------13-11---9------||
|---------------------------------------------||
|---------------------------------------------||
|
|                                      ~~~~
|   S   S S  S S  S  S  S  S S  S  S   Q
|---------------------------------------------||
|---------9-10-9----------10-9----------------||
|---9--11--------11--9-11------11--9---8------||
|---------------------------------------------||
|---------------------------------------------||
|---------------------------------------------||
|
|  +H.                                +E   E
|-(21)-------------------------------(21)-----||
|-(14)-------------------------------(14)-24--||
|-----------------------------------------16--||
|---------------------------------------------||
|--(4)--------------------------------(4)--2--||
|---------------------------------------------||


 Solo 5
   W                     +W
|---------------------|--------------------------|
|---------------------|--------------------------|
|--2------------------|--(2)---------------------|
|--2------------------|--(2)---------------------|
|--0------------------|--(0)---------------------|
|---------------------|--------------------------|
|
|  E  Q   Q   E  E  E     E.  E.   Q    E  E  E
|---------------------|-[17]---------------------|
|---------------------|----------[17]------------|
|-11-13---------13-14-|------13-----------13-14--|
|--------14--14-------|--[7]-----------14--------|
|---------------------|-----------[7]------------|
|---------------------|--------------------------|
|
|  W                     +W
|-21------------------|-(21)---------------------|
|---------------------|--------------------------|
|---------------------|--------------------------|
|--2------------------|--(2)---------------------|
|--0------------------|--(0)---------------------|
|---------------------|--------------------------|


    E    S  S  S S  S S S S  S S  S S  S S
|-------------------------------------------|
|-------------------------------------------|
|-------------------------------------------|
|---6---------------------------------------|
|---4----4--4--4-4--4-4-4-4--4-4--4-4--4-4--|
|-------------------------------------------|
|
|   E.      E.      Q        E    E    E
|-------------------------------------------|
|-------------------------------------------|
|--14b16---14------13-----------------------|
|---------------------------14---13---14----|
|-------------------------------------------|
|-------------------------------------------|
|
|   W
|-(21)--------------------------------------|
|-------------------------------------------|
|-------------------------------------------|
|---6---------------------------------------|
|---4---------------------------------------|
|-------------------------------------------|


   E   S S S S  S S  S  S  S  S  S  S  S  S
|-------------------------------------------|
|-------------------------------------------|
|-------------------------------------------|
|-------------------------------------------|
|--4---4-4-4-4--4-4--4--4--4--4--4--4--4--4-|
|-------------------------------------------|
|
|      ~~
|  E   Q        E    S  S  S  S  S  S  S  S
|-------------------------------------------|
|-------------------------------------------|
|--------------13---14-14-13-13-11-11-------|
|-13--14------------------------------14-14-|
|-------------------------------------------|
|-------------------------------------------|
|
| +W
|-------------------------------------------|
|-------------------------------------------|
|-------------------------------------------|
|-(6)---------------------------------------|
|-(4)---------------------------------------|
|-------------------------------------------|


   W                           +W
|---------------------------|----------------------------|
|---------------------------|----------------------------|
|--2------------------------|--(2)-----------------------|
|--2------------------------|--(2)-----------------------|
|--0------------------------|--(0)-----------------------|
|---------------------------|----------------------------|
|
|  E.    E.   Q    E  E  E      E.   E.   Q    E  E  E
|---------------------------|-[17]-[16]------------------|
|-----------[17]------------|-----------[17]-------------|
|--9b11-13-----------11-13--|--------------------13-14---|
|-----------------14--------|--[7]--[6]-------14---------|
|------------[7]------------|------------[7]-------------|
|---------------------------|----------------------------|
|
|  W                           +W
|-21------------------------|-(21)-----------------------|
|---------------------------|----------------------------|
|---------------------------|----------------------------|
|--2------------------------|--(2)-----------------------|
|--0------------------------|--(0)-----------------------|
|---------------------------|----------------------------|


   E  S S  S S  S S S S  S S  S S  S S
|--------------------------------------|
|--------------------------------------|
|--------------------------------------|
|--------------------------------------|
|--6-----------------------------------|
|--4--4-4--4-4--4-4-4-4--4-4--4-4--4-4-|
|
|  E  E    E    Q        E    E    E
|--------------------------------------|
|-12-12---14---12----------------------|
|-----------------------14---13---14---|
|--------------------------------------|
|--------------------------------------|
|--------------------------------------|
|
|  W
|-16-----------------------------------|
|--------------------------------------|
|--------------------------------------|
|--------------------------------------|
|--6-----------------------------------|
|--4-----------------------------------|


    E   S S S S  E  S  S  S  S  E     S  S
|------------------------------------------||
|------------------------------------------||
|------------------------------------------||
|------------------------------------------||
|---6------------6--------------6----------||
|---4---4-4-4-4--4--4--4--4--4--4-----4--4-||
|
|   E   Q        E  S  S  S  S  S  S  S  S
|------------------------------------------||
|--12--14-------16-14-14-12-12-------------||
|------------------------------14-14-13-13-||
|------------------------------------------||
|------------------------------------------||
|------------------------------------------||
|
|  +W
|-(16)-------------------------------------||
|------------------------------------------||
|------------------------------------------||
|------------------------------------------||
|--(6)-------------------------------------||
|--(4)-------------------------------------||


 Twin Solo 2
   S  S S  S S  S  S  S S  S  S  S  S  S S  S
|---------------------------------------------|
|-------------------------------10------------|
|-------9-11-9----------9-11-13----13-11-9----|
|-11-13--------13-11-13--------------------13-|
|---------------------------------------------|
|---------------------------------------------|
|
|  S  S S  S S  S  S  S S  S  S  S  S  S S  S
|--------------------------------9------------|
|-------9-10-9----------9-10-12----12-10-9----|
|--9-11--------11--9-11--------------------11-|
|---------------------------------------------|
|---------------------------------------------|
|---------------------------------------------|
|
|  W
|-21------------------------------------------|
|-14------------------------------------------|
|---------------------------------------------|
|---------------------------------------------|
|--4------------------------------------------|
|---------------------------------------------|


    S   S S  S S  S  S  S  S S  S  S   Q
|---------------------------------------------|
|---------------------------------------------|
|---------9-11-9----------11-9----------------|
|--11--13--------13-11-13------13-11---9------|
|---------------------------------------------|
|---------------------------------------------|
|
|   S   S S  S S  S  S  S  S S  S  S   Q
|---------------------------------------------|
|---------9-10-9----------10-9----------------|
|---9--11--------11--9-11------11--9---8------|
|---------------------------------------------|
|---------------------------------------------|
|---------------------------------------------|
|
|  +H.                                +E   E
|-(21)-------------------------------(21)-----|
|-(14)-------------------------------(14)-24--|
|-----------------------------------------16--|
|---------------------------------------------|
|--(4)--------------------------------(4)--2--|
|---------------------------------------------|


   S  S S  S S  S  S  S S  S  S  S  S  S S  S
|---------------------------------------------|
|-------------------------------10------------|
|-------9-11-9----------9-11-13----13-11-9----|
|-11-13--------13-11-13--------------------13-|
|---------------------------------------------|
|---------------------------------------------|
|
|  S  S S  S S  S  S  S S  S  S  S  S  S S  S
|--------------------------------9------------|
|-------9-10-9----------9-10-12----12-10-9----|
|--9-11--------11--9-11--------------------11-|
|---------------------------------------------|
|---------------------------------------------|
|---------------------------------------------|
|
|  W
|-21------------------------------------------|
|-14------------------------------------------|
|---------------------------------------------|
|---------------------------------------------|
|--4------------------------------------------|
|---------------------------------------------|


    S   S S  S S  S  S  S  S S  S  S   Q
|------------------------------------------------|
|------------------------------------------------|
|---------9-11-9----------11-9--------[9]b11-----|
|--11--13--------13-11-13------13-11-------------|
|------------------------------------------------|
|------------------------------------------------|
|
|   S   S S  S S  S  S  S  S S  S  S   Q
|------------------------------------------------|
|---------9-10-9----------10-9-------[10]b12-----|
|---9--11--------11--9-11------11--9-------------|
|------------------------------------------------|
|------------------------------------------------|
|------------------------------------------------|
|
|  +H.                                +E      E
|-(21)-------------------------------(21)--------|
|-(14)-------------------------------(14)----24--|
|--------------------------------------------16--|
|------------------------------------------------|
|--(4)--------------------------------(4)-----2--|
|------------------------------------------------|


   S  S S  S S  S  S  S S  S  S  S  S  S S  S
|---------------------------------------------|
|-------------------------------10------------|
|-------9-11-9----------9-11-13----13-11-9----|
|-11-13--------13-11-13--------------------13-|
|---------------------------------------------|
|---------------------------------------------|
|
|  S  S S  S S  S  S  S S  S  S  S  S  S S  S
|--------------------------------9------------|
|-------9-10-9----------9-10-12----12-10-9----|
|--9-11--------11--9-11--------------------11-|
|---------------------------------------------|
|---------------------------------------------|
|---------------------------------------------|
|
|  W
|-21------------------------------------------|
|-14------------------------------------------|
|---------------------------------------------|
|---------------------------------------------|
|--4------------------------------------------|
|---------------------------------------------|


    S   S S  S S  S  S  S  S S  S  E        E.
|-----------------------------------------(14)----|
|-------------------------------------------------|
|---------9-11-9----------11-9--------------------|
|--11--13--------13-11-13------13-11--------------|
|-------------------------------------------------|
|-------------------------------------------------|
|
|   S   S S  S S  S  S  S  S S  S  E        E.
|------------------------------------------14-----|
|---------9-10-9----------10-9--------------------|
|---9--11--------11--9-11------11--9--------------|
|-------------------------------------------------|
|-------------------------------------------------|
|-------------------------------------------------|
|
|  +H.                                +E        E
|-(21)-------------------------------(21)---------|
|-(14)-------------------------------(14)------24-|
|----------------------------------------------16-|
|-------------------------------------------------|
|--(4)--------------------------------(4)-------2-|
|-------------------------------------------------|


   S  S S  S S  S  S  S S  S  S  S  S  S S  S
|---------------------------------------------|
|-------------------------------10------------|
|-------9-11-9----------9-11-13----13-11-9----|
|-11-13--------13-11-13--------------------13-|
|---------------------------------------------|
|---------------------------------------------|
|
|  S  S S  S S  S  S  S S  S  S  S  S  S S  S
|--------------------------------9------------|
|-------9-10-9----------9-10-12----12-10-9----|
|--9-11--------11--9-11--------------------11-|
|---------------------------------------------|
|---------------------------------------------|
|---------------------------------------------|
|
|  W
|-21------------------------------------------|
|-14------------------------------------------|
|---------------------------------------------|
|---------------------------------------------|
|--4------------------------------------------|
|---------------------------------------------|


                                       ~~~~
    S   S S  S S  S  S  S  S S  S  S   Q
|---------------------------------------------||
|---------------------------------------------||
|---------9-11-9----------11-9----------------||
|--11--13--------13-11-13------13-11---9------||
|---------------------------------------------||
|---------------------------------------------||
|
|                                      ~~~~
|   S   S S  S S  S  S  S  S S  S  S   Q
|---------------------------------------------||
|---------9-10-9----------10-9----------------||
|---9--11--------11--9-11------11--9---8------||
|---------------------------------------------||
|---------------------------------------------||
|---------------------------------------------||
|
|  +H.                                +E   E
|-(21)-------------------------------(21)-----||
|-(14)-------------------------------(14)-24--||
|-----------------------------------------16--||
|---------------------------------------------||
|--(4)--------------------------------(4)--2--||
|---------------------------------------------||


 Solo 6
   Q   Q      Q   Q     Q.      Q.    Q       a
|--------------------|---------17----17b19--(17)-|
|----------------17--|-17b19---------------------|
|------------18------|---------------------------|
|-----16b19----------|---------------------------|
|--------------------|---------------------------|
|--------------------|---------------------------|
|
|  W                    W
|--------------------|---------------------------|
|--------------------|---------------------------|
|--2-----------------|--4------------------------|
|--2-----------------|--4------------------------|
|--0-----------------|--2------------------------|
|--------------------|---------------------------|
|
|  W                    W
|-17-----------------|-19------------------------|
|-10-----------------|-12------------------------|
|--------------------|---------------------------|
|--------------------|---------------------------|
|--0-----------------|--2------------------------|
|--------------------|---------------------------|


   E  S  S  E  E  E  S  S  E  E     E   S  S  E  E  E  E  E  E
|-19-17-19-16-------16-17-16----|--19--17-19-16-17-19-21-19-16--|
|-------------17-21----------17-|-------------------------------|
|-------------------------------|-------------------------------|
|-------------------------------|-------------------------------|
|-------------------------------|-------------------------------|
|-------------------------------|-------------------------------|
|
|  W                               +W
|-------------------------------|-------------------------------|
|-------------------------------|-------------------------------|
|-------------------------------|-------------------------------|
|--2----------------------------|--(2)--------------------------|
|--2----------------------------|--(2)--------------------------|
|--0----------------------------|--(0)--------------------------|
|
|  W                               +W
|-19----------------------------|-(19)--------------------------|
|--7----------------------------|--(7)--------------------------|
|-------------------------------|-------------------------------|
|-------------------------------|-------------------------------|
|--7----------------------------|--(7)--------------------------|
|-------------------------------|-------------------------------|


   E     E  E  E  E  E  E  E    E     E  E  E  E  E  E  E
|-19b21-21-21-19-19-19-16-19-|-17b19-19-19----------------|
|----------------------------|-------------21-21-21-19-21-|
|----------------------------|----------------------------|
|----------------------------|----------------------------|
|----------------------------|----------------------------|
|----------------------------|----------------------------|
|
|  W                            W
|----------------------------|----------------------------|
|----------------------------|----------------------------|
|--2-------------------------|--4-------------------------|
|--2-------------------------|--4-------------------------|
|--0-------------------------|--2-------------------------|
|----------------------------|----------------------------|
|
|  W                            W
|-17-------------------------|-19-------------------------|
|-10-------------------------|-12-------------------------|
|----------------------------|----------------------------|
|----------------------------|----------------------------|
|--0-------------------------|--2-------------------------|
|----------------------------|----------------------------|


   T     T     T     T     T     T     T     T
   S  S  S  S  S  S  S  S  S  S  S  S  S  S  S  S
|-------------------------------------------------|
|-21-17-21-17-21-17-19-17-19-17-19-17-21-17-21-17-|
|-------------------------------------------------|
|-------------------------------------------------|
|-------------------------------------------------|
|-------------------------------------------------|
|
|  W
|-------------------------------------------------|
|-------------------------------------------------|
|-------------------------------------------------|
|--2----------------------------------------------|
|--2----------------------------------------------|
|--0----------------------------------------------|
|
|  W
|-19----------------------------------------------|
|--7----------------------------------------------|
|-------------------------------------------------|
|-------------------------------------------------|
|--7----------------------------------------------|
|-------------------------------------------------|


    T      T     T     T     T     T     T     T
    S   S  S  S  S  S  S  S  S  S  S  S  S  S  S  S
|----------------------------------------------------|
|--21--17-19-17-19-17-19-17-21-17-21-17-19-17-19-17--|
|----------------------------------------------------|
|----------------------------------------------------|
|----------------------------------------------------|
|----------------------------------------------------|
|
|  +W
|----------------------------------------------------|
|----------------------------------------------------|
|----------------------------------------------------|
|--(2)-----------------------------------------------|
|--(2)-----------------------------------------------|
|--(0)-----------------------------------------------|
|
|  +W
|-(19)-----------------------------------------------|
|--(7)-----------------------------------------------|
|----------------------------------------------------|
|----------------------------------------------------|
|--(7)-----------------------------------------------|
|----------------------------------------------------|


   S S S S  S S S S  S S S S  S S  S S
|--9-9-9-9-12-9-9-9-16-9-9-9-14-9-12-9-|
|--------------------------------------|
|--------------------------------------|
|--------------------------------------|
|--------------------------------------|
|--------------------------------------|
|
|  W
|--------------------------------------|
|--------------------------------------|
|--2-----------------------------------|
|--2-----------------------------------|
|--0-----------------------------------|
|--------------------------------------|
|
|  W
|-17-----------------------------------|
|-10-----------------------------------|
|--------------------------------------|
|--------------------------------------|
|--0-----------------------------------|
|--------------------------------------|


   S  S  S  S  S  S  S  S  S  S  S  S  S  S  S  S
|-11-11-11-11-14-11-11-11-17-11-11-11-16-11-14-11--|
|--------------------------------------------------|
|--------------------------------------------------|
|--------------------------------------------------|
|--------------------------------------------------|
|--------------------------------------------------|
|
|  W
|--------------------------------------------------|
|--------------------------------------------------|
|--4-----------------------------------------------|
|--4-----------------------------------------------|
|--2-----------------------------------------------|
|--------------------------------------------------|
|
|  W
|-19-----------------------------------------------|
|-12-----------------------------------------------|
|--------------------------------------------------|
|--------------------------------------------------|
|--2-----------------------------------------------|
|--------------------------------------------------|


   S S  S  S   Q    S S  S  S   Q
|-12-0-12-10-[16]--12-0-12-10-[14]--|
|-----------------------------------|
|-----------------------------------|
|-----------------------------------|
|-----------------------------------|
|-----------------------------------|
|
|  W
|-----------------------------------|
|-----------------------------------|
|-----------------------------------|
|--2--------------------------------|
|--2--------------------------------|
|--0--------------------------------|
|
|  W
|-24--------------------------------|
|-17--------------------------------|
|-----------------------------------|
|-----------------------------------|
|--7--------------------------------|
|-----------------------------------|


   S  S  S  S  S  S  S  S  S  S  S  S  S  S  S  S
|-11-11-12-11-14-11-12-11-16-17-16-14----14-------|
|-------------------------------------17----17-16-|
|-------------------------------------------------|
|-------------------------------------------------|
|-------------------------------------------------|
|-------------------------------------------------|
|
|  W
|-------------------------------------------------|
|-------------------------------------------------|
|-------------------------------------------------|
|--6----------------------------------------------|
|--6----------------------------------------------|
|--4----------------------------------------------|
|
|  W
|-21----------------------------------------------|
|-14----------------------------------------------|
|-------------------------------------------------|
|-------------------------------------------------|
|--4----------------------------------------------|
|-------------------------------------------------|


   T     T     T     T     T     T     T     T
   S  S  S  S  S  S  S  S  S  S  S  S  S  S  S  S
|-16-12-16-12-14-12-14-12-16-12-16-12-17-12-17-12-|
|-------------------------------------------------|
|-------------------------------------------------|
|-------------------------------------------------|
|-------------------------------------------------|
|-------------------------------------------------|
|
|  E     S  S  S  S  E     S  S  S  S  E     S  S
|-------------------------------------------------|
|-------------------------------------------------|
|-------------------------------------------------|
|--2-----------------2-----------------2----------|
|--0-----0--0--0--0--0-----0--0--0--0--0-----0--0-|
|-------------------------------------------------|
|
|  W
|-17----------------------------------------------|
|-10----------------------------------------------|
|-------------------------------------------------|
|-------------------------------------------------|
|--0----------------------------------------------|
|-------------------------------------------------|


    E   S  S  E    E  E       E    E  E
|-----------------------------------------|
|--14--14-16-17---14-17b19---17---16-17---|
|-----------------------------------------|
|-----------------------------------------|
|-----------------------------------------|
|-----------------------------------------|
|
|   E   S  S  S S  E  S    S  S S  E  S S
|-----------------------------------------|
|-----------------------------------------|
|-----------------------------------------|
|---2--------------2---------------2------|
|---0---0--0--0-0--0--0----0--0-0--0--0-0-|
|-----------------------------------------|
|
|  +W
|-(17)------------------------------------|
|-(10)------------------------------------|
|-----------------------------------------|
|-----------------------------------------|
|--(0)------------------------------------|
|-----------------------------------------|


   E  S  S  E    S  S  S.     T  S.     T  E  E
|------------------14-14b16-----14b17-----16-14---|
|-16-16-17-19---17--------------------------------|
|-------------------------------------------------|
|-------------------------------------------------|
|-------------------------------------------------|
|-------------------------------------------------|
|
|  E  S  S  S S  E     S    S    S    S    E  S S
|-------------------------------------------------|
|-------------------------------------------------|
|-------------------------------------------------|
|--4-------------4-------------------------4------|
|--2--2--2--2-2--2-----2----2----2----2----2--2-2-|
|-------------------------------------------------|
|
|  W
|-19----------------------------------------------|
|-12----------------------------------------------|
|-------------------------------------------------|
|-------------------------------------------------|
|--2----------------------------------------------|
|-------------------------------------------------|


                                     D.S. al Coda
    S   S  S  S  S  S  S  S  S  S  S  S   Q
|--19--17-16----17-16----------------14-[19]-------||
|------------19-------19-17-------16---------------||
|------------------------------16------------------||
|---------------------------16---------------------||
|--------------------------------------------------||
|--------------------------------------------------||
|
|   E      S  S  S  S  E     S  S  S  S   E  S S
|--------------------------------------------------||
|--------------------------------------------------||
|--------------------------------------------------||
|---4------------------4------------------4--------||
|---2------2--2--2--2--2-----2--2--2--2---2--2-2---||
|--------------------------------------------------||
|
|  +W
|-(19)---------------------------------------------||
|-(12)---------------------------------------------||
|--------------------------------------------------||
|--------------------------------------------------||
|--(2)---------------------------------------------||
|--------------------------------------------------||


 Choral Bridge
  &
   E    S S S S  S  S S S S S  S S S S    E  S S S S  S  S S S S S  S S S S
|--------------------------------------|-------------------------------------|
|--------------------------------------|-------------------------------------|
|--------------------------------------|-------------------------------------|
|--6-----------------------------------|-------------------------------------|
|--4----4-4-4-4--4--4-4-4-4-4--4-4-4-4-|--0--0-0-0-0--0--0-0-0-0-0--0-0-0-0--|
|--------------------------------------|-------------------------------------|
|
|  Q.            Q.            Q          Q.          Q.            Q
|--------------------------------------|-------------------------------------|
|--------------------------------------|-------------------------------------|
|-11b13---------16------------18-------|-18----------16------------18--------|
|--------------------------------------|-------------------------------------|
|--------------------------------------|-------------------------------------|
|--------------------------------------|-------------------------------------|
|
|  W                                      W
|--------------------------------------|-------------------------------------|
|--------------------------------------|-------------------------------------|
|--------------------------------------|--2----------------------------------|
|--6-----------------------------------|-------------------------------------|
|--------------------------------------|--0----------------------------------|
|--4-----------------------------------|-------------------------------------|


   E  S S S S  S  S S S S S  S S S S    S    S S S S S  S  S S S S S  S S S S
|------------------------------------|----------------------------------------|
|------------------------------------|----------------------------------------|
|------------------------------------|----------------------------------------|
|--4---------------------------------|----------------------------------------|
|--2--2-2-2-2--2--2-2-2-2-2--2-2-2-2-|--2----2-2-2-2-2--2--2-2-2-2-2--2-2-2-2-|
|------------------------------------|----------------------------------------|
|
|  Q.          Q.            Q          Q.              Q.            Q
|------------------------------------|----------------------------------------|
|------------------------------------|-14b16-----------14------------16-------|
|-------------16------------18-------|----------------------------------------|
|-16---------------------------------|----------------------------------------|
|------------------------------------|----------------------------------------|
|------------------------------------|----------------------------------------|
|
|  W                                   +W
|------------------------------------|----------------------------------------|
|------------------------------------|----------------------------------------|
|--4---------------------------------|-(4)------------------------------------|
|------------------------------------|----------------------------------------|
|--2---------------------------------|-(2)------------------------------------|
|------------------------------------|----------------------------------------|


   W                  +W                 W                  +W
|-------------------|-----------------|------------------|---------|
|-------------------|-----------------|------------------|---------|
|--6----------------|-(6)-------------|--4---------------|--(4)----|
|--6----------------|-(6)-------------|--4---------------|--(4)----|
|--4----------------|-(4)-------------|--2---------------|--(2)----|
|-------------------|-----------------|------------------|---------|
|
|  Q.      Q.    Q     Q.    Q.    Q     Q.    H     +E     +W
|-------------------|-----------------|------------------|---------|
|-16b17---16--------|-------16----17--|-16---------------|---------|
|---------------18--|-18--------------|-------16----(16)-|-(16)----|
|-------------------|-----------------|------------------|---------|
|-------------------|-----------------|------------------|---------|
|-------------------|-----------------|------------------|---------|
|
|  W                  +W                 W                  +W
|-------------------|-----------------|------------------|---------|
|-------------------|-----------------|------------------|---------|
|--6----------------|-(6)-------------|--4---------------|--(4)----|
|-------------------|-----------------|------------------|---------|
|--4----------------|-(4)-------------|--2---------------|--(2)----|
|-------------------|-----------------|------------------|---------|


   E    S S S S  S  S S S S S  S S S S    E  S S S S  E  S S S S  S S S S
|--------------------------------------|----------------------------------|
|--------------------------------------|----------------------------------|
|--------------------------------------|----------------------------------|
|--6-----------------------------------|--2-----------2-------------------|
|--4----4-4-4-4--4--4-4-4-4-4--4-4-4-4-|--0--0-0-0-0--0--0-0-0-0--0-0-0-0-|
|--------------------------------------|----------------------------------|
|
|  Q.            Q.            Q          Q.          Q.          Q
|--------------------------------------|----------------------------------|
|--------------------------------------|----------------------------------|
|-11b13---------16------------18-------|-18----------16----------18-------|
|--------------------------------------|----------------------------------|
|--------------------------------------|----------------------------------|
|--------------------------------------|----------------------------------|
|
|  W                                      W
|--------------------------------------|----------------------------------|
|--------------------------------------|----------------------------------|
|--------------------------------------|--2-------------------------------|
|--6-----------------------------------|----------------------------------|
|--------------------------------------|--0-------------------------------|
|--4-----------------------------------|----------------------------------|


   E  S S S S  E  S S S S  S S S S    E  S S S S  E  S S S S  S S S S
|----------------------------------|----------------------------------|
|----------------------------------|----------------------------------|
|----------------------------------|----------------------------------|
|--4-----------4-------------------|--4-----------4-------------------|
|--2--2-2-2-2--2--2-2-2-2--2-2-2-2-|--2--2-2-2-2--2--2-2-2-2--2-2-2-2-|
|----------------------------------|----------------------------------|
|
|  Q.          Q.          Q          Q.          Q.          Q
|----------------------------------|----------------------------------|
|----------------------------------|-16----------------------16-------|
|-------------16----------18-------|-------------18-------------------|
|-16-------------------------------|----------------------------------|
|----------------------------------|----------------------------------|
|----------------------------------|----------------------------------|
|
|  W                                 +W
|----------------------------------|----------------------------------|
|----------------------------------|----------------------------------|
|--4-------------------------------|-(4)------------------------------|
|----------------------------------|----------------------------------|
|--2-------------------------------|-(2)------------------------------|
|----------------------------------|----------------------------------|


   W                +W                 W                  +W
|-----------------|-----------------|------------------|---------||
|-----------------|-----------------|------------------|---------||
|-----------------|-----------------|--4---------------|--(4)----||
|--2--------------|-(2)-------------|--4---------------|--(4)----||
|--2--------------|-(2)-------------|--2---------------|--(2)----||
|--0--------------|-(0)-------------|------------------|---------||
|
|                                            ~~~~~~~~~~~~~~~~~
|  Q.    Q.    Q     Q.    Q.    Q     Q.    H     +E     +W
|-----------------|-----------------|------------------|---------||
|-17----16--------|-------16----17--|-16----19----(19)-|-(19)----||
|-------------18--|-18--------------|------------------|---------||
|-----------------|-----------------|------------------|---------||
|-----------------|-----------------|------------------|---------||
|-----------------|-----------------|------------------|---------||
|
|  W                +W                 W                  +W
|-----------------|-----------------|------------------|---------||
|-----------------|-----------------|------------------|---------||
|--4--------------|-(4)-------------|--9---------------|--(9)----||
|-----------------|-----------------|------------------|---------||
|--2--------------|-(2)-------------|--7---------------|--(7)----||
|-----------------|-----------------|------------------|---------||


 Outro
   E  S S S S S  S S S S S S S S S     E    S S S S E  S S S S S S S S
|----------------------------------|-----------------------------------|
|----------------------------------|-----------------------------------|
|----------------------------------|-----------------------------------|
|--6-------------------------------|---6------------6------------------|
|--4--4-4-4-4-4--4-4-4-4-4-4-4-4-4-|---4----4-4-4-4-4--4-4-4-4-4-4-4-4-|
|----------------------------------|-----------------------------------|
|
|  Q.         Q.           Q           Q.           Q.         Q
|----------------------------------|-----------------------------------|
|----------------------------------|-----------------------------------|
|----------------------------------|----------------8----------9-------|
|--6----------6------------9-------|---9b11----------------------------|
|----------------------------------|-----------------------------------|
|----------------------------------|-----------------------------------|
|
|  W                                  +W
|-16-------------------------------|-(16)------------------------------|
|----------------------------------|-----------------------------------|
|--6-------------------------------|--(6)------------------------------|
|----------------------------------|-----------------------------------|
|--4-------------------------------|--(4)------------------------------|
|----------------------------------|-----------------------------------|


    W                 +W                 E   S S S S S  S S S S S  S S S S
|------------------|------------------|-------------------------------------|
|------------------|------------------|-------------------------------------|
|---6--------------|--(6)-------------|-------------------------------------|
|---6--------------|--(6)-------------|--4----------------------------------|
|---4--------------|--(4)-------------|--2---2-2-2-2-2--2-2-2-2-2--2-2-2-2--|
|------------------|------------------|-------------------------------------|
|
|   Q.    Q.    Q      H        Q  Q     Q.          Q.            Q
|------------------|------------------|-------------------------------------|
|--17--------------|------------------|-------------------------------------|
|---8b9---8--------|---8b10--------8--|--8b9---------8----------------------|
|--------------11--|-----------11-----|---------------------------11--------|
|------------------|------------------|-------------------------------------|
|------------------|------------------|-------------------------------------|
|
|  +W                 +W                 W
|-(16)-------------|-(16)-------------|-14----------------------------------|
|------------------|------------------|-------------------------------------|
|--(6)-------------|--(6)-------------|--4----------------------------------|
|------------------|------------------|-------------------------------------|
|--(4)-------------|--(4)-------------|--2----------------------------------|
|------------------|------------------|-------------------------------------|


    E  S S S S E  S S S S S S S S    W                +W
|---------------------------------|-----------------|-------------------|
|---------------------------------|-----------------|-------------------|
|---------------------------------|--2--------------|-(2)---------------|
|---4----------4------------------|--2--------------|-(2)---------------|
|---2--2-2-2-2-2--2-2-2-2-2-2-2-2-|--0--------------|-(0)---------------|
|---------------------------------|-----------------|-------------------|
|
|   H             Q       Q          Q.    Q.    Q     Q.    Q.    Q
|---------------------------------|-----------------|-------------------|
|---------------------------------|-----------------|-------------------|
|---8---------------------8-------|--8b9---8--------|-------------------|
|----------------11---------------|-------------11--|-------11-----9----|
|---------------------------------|-----------------|-11----------------|
|---------------------------------|-----------------|-------------------|
|
|  +W                                W                 H.          E  E
|-(14)----------------------------|-12--------------|-12----------12-14-|
|---------------------------------|-----------------|-------------------|
|--(4)----------------------------|--2--------------|--2-----------2--4-|
|---------------------------------|-----------------|-------------------|
|--(2)----------------------------|--0--------------|--0-----------0--2-|
|---------------------------------|-----------------|-------------------|


   E   S S S S S  S S S S S S S S S     E  S S S S E  S S S S S S S S
|-----------------------------------|---------------------------------|
|-----------------------------------|---------------------------------|
|-----------------------------------|---------------------------------|
|--6--------------------------------|---6----------6------------------|
|--4---4-4-4-4-4--4-4-4-4-4-4-4-4-4-|---4--4-4-4-4-4--4-4-4-4-4-4-4-4-|
|-----------------------------------|---------------------------------|
|
|  Q.          Q.           Q           Q.         Q.         Q
|-----------------------------------|---------------------------------|
|-----------------------------------|---------------------------------|
|-----------------------------------|--------------8----------9-------|
|--4b6---------6------------9-------|--11-----------------------------|
|-----------------------------------|---------------------------------|
|-----------------------------------|---------------------------------|
|
|  W                                   +W
|-16--------------------------------|-(16)----------------------------|
|-----------------------------------|---------------------------------|
|--6--------------------------------|--(6)----------------------------|
|-----------------------------------|---------------------------------|
|--4--------------------------------|--(4)----------------------------|
|-----------------------------------|---------------------------------|


   W                 +W               E   S S S S S  S S S S S  S S S S
|-----------------|----------------|-------------------------------------|
|-----------------|----------------|-------------------------------------|
|-----------------|----------------|-------------------------------------|
|--2--------------|--(2)-----------|--4----------------------------------|
|--2--------------|--(2)-----------|--2---2-2-2-2-2--2-2-2-2-2--2-2-2-2--|
|--0--------------|--(0)-----------|-------------------------------------|
|
|  Q.     Q.   Q      H      Q  Q     Q.          Q.            Q
|-----------------|----------------|-------------------------------------|
|-----------------|----------------|-------------------------------------|
|-11b13---9----8--|---9---------8--|--8b9---------8----------------------|
|-----------------|---------11-----|---------------------------11--------|
|-----------------|----------------|-------------------------------------|
|-----------------|----------------|-------------------------------------|
|
|  W                 +W               W
|-19--------------|-(19)-----------|-14----------------------------------|
|-----------------|----------------|-------------------------------------|
|--9--------------|--(9)-----------|--4----------------------------------|
|-----------------|----------------|-------------------------------------|
|--7--------------|--(7)-----------|--2----------------------------------|
|-----------------|----------------|-------------------------------------|


    E  S S S S E  S S S S S S S S
|---------------------------------|
|---------------------------------|
|---------------------------------|
|---4----------4------------------|
|---2--2-2-2-2-2--2-2-2-2-2-2-2-2-|
|---------------------------------|
|
|   H             Q       Q
|---------------------------------|
|---------------------------------|
|---8---------------------8-------|
|----------------11---------------|
|---------------------------------|
|---------------------------------|
|
|  +W
|-(14)----------------------------|
|---------------------------------|
|--(4)----------------------------|
|---------------------------------|
|--(2)----------------------------|
|---------------------------------|


   W                                     +W
|-------------------------------------|-----------------|
|-------------------------------------|-----------------|
|--2----------------------------------|--(2)------------|
|--2----------------------------------|--(2)------------|
|--0----------------------------------|--(0)------------|
|-------------------------------------|-----------------|
|
|  S  S S  S S  S S S S S S S S S S S     Q.    Q.   Q
|-------------------------------------|-----------------|
|-------------------------------------|-----------------|
|--9h11p9h11p9h11p8h9p8h9p8h9p6h8p6h8-|-----------------|
|-------------------------------------|---7----11----9--|
|-------------------------------------|-----------------|
|-------------------------------------|-----------------|
|
|  W                                     +W
|-12----------------------------------|-(12)------------|
|-------------------------------------|-----------------|
|--2----------------------------------|--(2)------------|
|-------------------------------------|-----------------|
|--0----------------------------------|--(0)------------|
|-------------------------------------|-----------------|


   W               +W                  S  S  S  S  E. S  S  S  S  S  E. S
|----------------|------------------|-------------------------------------||
|----------------|------------------|-------------------------------------||
|--2-------------|-(2)--------------|-------------------------------------||
|--2-------------|-(2)--------------|--6--6--6--6--6-----6--6--6--6--6----||
|--0-------------|-(0)--------------|--4--4--4--4--4-----4--4--4--4--4----||
|----------------|------------------|-------------------------------------||
|
|        ~~~~~~~~~~~~~~~~~~~~~~~~
|  H     H          H       H          S  S  S  S  E. S  S  S  S  S  E. S
|----------------|------------------|-------------------------------------||
|----------------|------------------|--9--9--9--9--9-----9--9--9--9--9----||
|----------------|--6b9-----9b14----|-------------------------------------||
|--7-----7b11----|------------------|-------------------------------------||
|----------------|------------------|-------------------------------------||
|----------------|------------------|-------------------------------------||
|
|  H     H          H       H          S  S  S  S  Q     S  S  S  S  Q
|----------------|---------17-------|-------------------------------------||
|----------------|-17------17-------|-21-21-21-21-21----21-21-21-21-21----||
|-------18-------|-18------14-------|-18-18-18-18-18----18-18-18-18-18----||
|-19----19-------|-14---------------|-------------------------------------||
|-19----16-------|------------------|-------------------------------------||
|-17-------------|------------------|-------------------------------------||


 Finale
   S  S  S  S  S   S  S  S  S  S  S  S  S  S  S  S
|--------------------------------------------------|
|--------------------------10-------10-12-10----12-|
|-11-------11-13--11--9-13----13-11----------13----|
|----14-13-----------------------------------------|
|--------------------------------------------------|
|--------------------------------------------------|
|
|  S  S  S  S  S   S  S  S  S  S  S  S  S  S  S  S
|--------------------------------------------------|
|--------------------------------------------------|
|--------------------------11-------11-13-11----13-|
|-13-11----13-14--13-11-14----14-13----------14----|
|-------14-----------------------------------------|
|--------------------------------------------------|
|
|  Q           H.
|--------------------------------------------------|
|-21-----------------------------------------------|
|-18-----------------------------------------------|
|--------------------------------------------------|
|--------------------------------------------------|
|--------------------------------------------------|


   S  S  S  S  S  S  S  S  S  S  S  S  S  S  S  S
|-------------11-------11-12-11--9-12-14-12-11-14--|
|-14-12-10-14----14-12-----------------------------|
|--------------------------------------------------|
|--------------------------------------------------|
|--------------------------------------------------|
|--------------------------------------------------|
|
|  S  S  S  S  S  S  S  S  S  S  S  S  S  S  S  S
|--------------------------------------------------|
|-------------12-------12-14-12-10-14-16-12-14-16--|
|-14-13-11-14----14-13-----------------------------|
|--------------------------------------------------|
|--------------------------------------------------|
|--------------------------------------------------|
|
|  W
|--------------------------------------------------|
|--------------------------------------------------|
|--------------------------------------------------|
|--------------------------------------------------|
|--------------------------------------------------|
|--------------------------------------------------|


   W           +W            +W
|-17--------|-(17)--------|-(17)--------|
|-----------|-------------|-------------|
|-----------|-------------|-------------|
|-----------|-------------|-------------|
|-----------|-------------|-------------|
|-----------|-------------|-------------|
|
|  W           +W            +W
|-----------|-------------|-------------|
|-17--------|-(17)--------|-(17)--------|
|-----------|-------------|-------------|
|-----------|-------------|-------------|
|-----------|-------------|-------------|
|-----------|-------------|-------------|
|
|  W           +W            +W
|-21--------|-(21)--------|-(21)--------|
|-22--------|-(22)--------|-(22)--------|
|-21--------|-(21)--------|-(21)--------|
|-----------|-------------|-------------|
|--0--------|--(0)--------|--(0)--------|
|-----------|-------------|-------------|


   +W            S.  T  E.  E S H      W
|-(17)--------|-21-----21------------|------*|
|-------------|----------------------|------*|
|-------------|-----18-----16--------|------*|
|-------------|----------------------|------*|
|-------------|----------------------|------*|
|-------------|----------------------|------*|
|
|  +W            S.  T  E.  E S H      W
|-------------|-16-----16------------|------*|
|-(17)--------|----------------------|------*|
|-------------|-----18-----16--------|------*|
|-------------|----------------------|------*|
|-------------|----------------------|------*|
|-------------|----------------------|------*|
|
|  +W            E      Q.      H      W
|-(21)--------|-16-----16------------|------*|
|-(22)--------|-17-----17------------|------*|
|-(21)--------|-18-----18------------|------*|
|-------------|----------------------|------*|
|--(0)--------|----------------------|------*|
|-------------|----------------------|------*|



Duration Legend
---------------
W - whole; H - half; Q - quarter; E - 8th; S - 16th; T - 32nd; X - 64th; a - acciaccatura
+ - note tied to previous; . - note dotted; .. - note double dotted
Uncapitalized letters represent notes that are staccato (1/2 duration)
Irregular groupings are notated above the duration line
Duration letters will always appear directly above the note/fret number it represents the
duration for.  Duration letters with no fret number below them represent rests.  Multi-
bar rests are notated in the form Wxn, where n is the number of bars to rest for.  Low
melody durations appear below the staff

Tablature Legend
----------------
 h   - hammer-on
 p   - pull-off
 b   - bend
 pb  - pre-bend
 r   - bend release (if no number after the r, then release immediately)
 /\  - slide into or out of (from/to "nowhere")
 s   - legato slide
 S   - shift slide
 - natural harmonic
[n]  - artificial harmonic
n(n) - tapped harmonic
 ~   - vibrato
 tr  - trill
 T   - tap
 TP  - trem. picking
 PM  - palm muting
\n/  - tremolo bar dip; n = amount to dip
 \n  - tremolo bar down
 n/  - tremolo bar up
/n\  - tremolo bar inverted dip
 =   - hold bend; also acts as connecting device for hammers/pulls
 <> - volume swell (louder/softer)
 x   - on rhythm slash represents muted slash
 o   - on rhythm slash represents single note slash

Misc Legend
-----------
 |  - bar
||  - double bar
||o - repeat start
o|| - repeat end
*|  - double bar (ending)
 :  - bar (freetime)
 $  - Segno
 &  - Coda
Tempo markers -  = BPM(8/16=s8/s16), where s8 = swing 8ths, s16 = swing 16ths
Show more