Detour:Duane Eddy.
Album - Have Twangy Guitar Will Travel - 1958.

***(This was a request for an EASY version of this song.
    The following was as easy as I could make it. Experienced
    guitarists should easily be able to fill in the nuances I
    purposely left out. However, the basic song is still there. KK.)

Key of A.
-------------------------------------------------------------------------|
-------------------------------------------------------------------------|
-------------------------------------------------------------------------|
-------------------------------------------------------------------------|
---------0-0-0--2-0-4------------0-0-0---2-0-4----------0-0-0--2-0-4-----|
--0-0-4-------------------0-4--------------------0-4---------------------|


----------------------------------------------------------------------|
----------------------------------------------------------------------|
-------------------2-2------------------------------------------------|
--2-4-4-2-----2-4--------4-4-2----4-4-2-------------------------------|
------------------------------------------4-4-2-0---------------------|
----------------------------------------------------------------------|


------------------------------------------------------------------------|
------------------------------------------------------------------------|
-----2-----2-2-2------2----------------------------2--------------------|
--4----4-4---------4------4-2-----2-2-2-----2----4----------------------|
------------------------------4-4--------4------------------------------|
------------------------------------------------------------------------|

-----------------------------------------------------------------------|
-----------------------------------------------------------------------|
--------2-2-2---2------------------------------------------------------|
---4-4--------4------4-4-2---------------------------------------------|
----------------------------4-4-2-0------------------------------------|
-----------------------------------------------------------------------|

(INTERLUDE:)

REPEAT THE ABOVE.


A fifties smash from Kraziekhat.
Show more