this is a very simple song and only has one riff for the whole song, here it goes:


E--------------------------------------------------
B--------------------------------------------------
G--------------------------------------------------
D--------------------------------------------2-----
A---------------0-2------2-----0--0------0-4---2---
E-2^--0-----0-4------------4-0---------------------

E--------------------------------------------------
B--------------------------------------------------
G--------------------------------------------------
D--------------------------------------------------
A---------------0-2----------0-2--2----------------
E-2^--0-----0-4----------0-4---------2^--0---------
Show more