Hope you enjoy.  This is my first effort at tabbing a song.  Use plenty of vibrato and Bigsby!


DUANE EDDY

ROSE OF THE VALLEY

-----------------------------------------------------------|
-----------------------------------------------------------|
-----------------------------------------------------------|
-------------2---2--0------------------2-----2--0----------|  X2
----0--2--4----4------4--2----0--2--4-----4--------4/2--0--|
--0-------------------------0------------------------------|

-----------------------------------------------------------|
-----------------------------------------------------------|
----------2/1----------------------------------------------|
--0h2--4------2---2-2-0------------------2----2--0---------|  
------------------------4--2----0--2--4----4--------4/2--0-|
------------------------------0----------------------------|

-----------------------------------------------------------|
-----------------------------------------------------------|
-----------------------------------------------------------|
-------------2---2--0------------------2-----2--0----------|  
--2b--0-2--4---4------4--2----0--2--4-----4--------4/2---0-|
---------------------------0-------------------------------|

-----------------------------------------------------------|
-----------------------------------------------------------|
----------2/1----------------------------------------------|
--0h2--4------2---2-2-0------------------2----2--0---------|  
------------------------4--2----0--2--4----4--------4/2--0-|
------------------------------0----------------------------|

Sax Solo
Show more