• Song:

    Praise The Lord Opium Of The Masses

  • Artist:

    Dying Fetus

Band: Dying Fetus
Album: Destroy The Opposition
Song: Praise The Lord (Opium of the Masses)

Tuning: Drop C - (Low to High) C G C F A D
This song is originally tuned to C# (a step and a half down) (Low to High) C# F# B 
E G# C# but I awhile back I 
figured I'd play it in Drop C because I was too lazy to retune my guitar, and I 
also prefer to play drop tuning power 
chords. This is the same song and same notes, just transposed from C# to Drop C 
and it took me awhile to transpose but 
wasn't hard because I went off a different tab.

Credit for the song goes to John Gallagher, Jason Netherton, Sparky Voyles & Kevin 
Talley of Dying Fetus


Credit for tabbing goes to the person who tabbed it out...

http://tabs.ultimate-guitar.com/d/dying_fetus/praise_the_lord_tab.htm

It's credited as tabbed out by Sean Beasley, the current bassist of Dying Fetus


Credit also goes to the fellows in these videos...

http://youtu.be/QxD0pyc9_lI

http://youtu.be/Zt7c6_iNJkE


If it wasn't for the above mentioned links I wouldn't have been able to tab this 
out. So thanks you gentlemen.

I do not own the rights to this song and I did not write this song.
It's a very kick ass song by a very kickass band. Enjoy.

Intro: (3x)   (pinch on 2nd riff of 2nd intro)
|---------------------------|      |------------------|
|---------------------------|      |------------------|
|----------------------(2*)-| (3x) |------------------|(2x)
|------3-3------------------|      |------------------|
|-3-2--1-2--3-2-3---4-3-2---|      |-1-3-2-1--3-2-1-1-|
|-3-2-------3-2-3---4-3-2---|      |-1-3-2-1--3-2-1-1-|

1st Section: (3x)
|-----------------------------------|
|-----------------------------------|
|-----------------------------------| (3x)
|-----------------------------------|
|-2---------------------------------|
|-2--h4h6h7-t13/14/14p7p6p4p1-|

|---------------------------------|
|---------------------------------|
|---------------------------------|
|---------------------------------|
|---------------------------------|
|-h6h8h9h-t15/16
/16
p9p8p6p1-|

|--------------------------------|
|--------------------------------|
|--------------------------------|
|--------------------------------|
|--------------------------------|
|-4h6h7h-t13/14/14p7p6p4p1-|

|-----------------------------------|
|-----------------------------------|
|-----------------------------------| (2x)
|-----------------------------------|
|-2---------------------------------|
|-2--h4h6h7-t13/14/14p7p6p4p1-|

|-------------------------------------------------|
|-------------------------------------------------|
|-------------------------------------------------|
|-------------------------------------------------|
|-t15p6h9p6p1-t12p5h8p5p1-t10p3h6p3p1-t11p4h7p4p1-|
|-------------------------------------------------|

|-----------------------------------|
|-----------------------------------|
|-----------------------------------| (3x)
|-----------------------------------|
|-2---------------------------------|
|-2--h4h6h7-t13/14/14p7p6p4p1-|

|--------------------------------|
|--------------------------------|
|--------------------------------|
|--------------------------------|
|--------------------------------|
|-h6h8h(b9)t15/16
/16
p9p8p6p1-|

|--------------------------------|
|--------------------------------|
|--------------------------------|
|--------------------------------|
|--------------------------------|
|-4h6h7h-t13/14/14p7p6p4p1-|

|-----------------------------------|
|-----------------------------------|
|-----------------------------------| (2x)
|-----------------------------------|
|-2---------------------------------|
|-2--h4h6h7-t13/14/14p7p6p4p1-|

|-----------------------------|
|-----------------------------|
|-----------------------------| 
|-5/6-----4/5-----3/4-----4/5-|
|-7/8-----6/7-----5/6-----6/7-|
|-----1-1-----1-1-----1-1-----|
 
2nd Section: (2x)
|-----------------|      |-----------------|
|-----------------|      |-----------------|
|-----------------| (2x) |-----------------| (2x)
|-----------------|      |---------6-------|
|-----------------|      |-6-(b9)8-(b9)--(b9)8-(b9)|
|-1-2-4-2-5-4-2-4-|      |-----------------| 
tr...............        tr...............



3rd Section: (4x)
|---------------------------------|
|---------------------------------|
|---------------------------------|
|---------------------------------|
|-2-4-2-5-2-4-2-5-2-4-2-5-2-4-2-5-|
|-2-4-2-5-2-4-2-5-2-4-2-5-2-4-2-5-|

|------------|
|------------|
|------------| (2x)
|------------|
|------------|
|-t14p7h9h11-|

|----------------------------------------------------|
|----------------------------------------------------|
|----------------------------------------------------|
|-----------14p7h9h11---------------------t14p7h9h11-|
|-t14p7h9h11---------t14p7h9h11-t14p7h9h11-----------|
|----------------------------------------------------|

|-----------------------------------------------------|
|-----------------------------------------------------|
|-t14p7h9h11------------------------------------------|
|------------------------------------------t14p7h9h11-|
|--------------------------------t14p7h9h11-----------|
|-----------t14p7h9h11-t14p7h9h11---------------------|

|-----------------------------------|
|-----------------------------------|
|--------------------------------7*-|
|----------------------t14p7h9h11---|
|-t14p7h9h11-t14p7h9h11-------------|
|-----------------------------------|

2nd Section: (2x)
|-----------------|      |-----------------|-(last)-|
|-----------------|      |-----------------|--------|
|-----------------| (2x) |-----------------|-5*-----| (2x)
|-----------------|      |---------6-------|--------|
|-----------------|      |-6-(b9)8-(b9)--(b9)8-(b9)|--------|
|-1-2-4-2-5-4-2-4-|      |-----------------|--------|
tr...............        tr...............

|---------------------------|
|---------------------------|
|---------------------------|
|---------------------------|
|-1-2-4--1-1--2-5---1-1-1-1-|
|-1-2-4--1-1--2-5---1-1-1-1-|

|-------------------------|
|-------------------------|
|-------------------------|
|-------------------------|
|-1-2-4--1-1--2-5---1-1-1-|
|-1-2-4--1-1--2-5---1-1-1-|

|---------------------------|
|---------------------------|
|---------------------------| (3x)
|---------------------------|
|-1-2-4--1-1--2-5---1-1-1-1-|
|-1-2-4--1-1--2-5---1-1-1-1-|

|-------------------------|
|-------------------------|
|-------------------------|
|-------------------------|
|-1-2-4--1-1--2-5---1-1-1-|
|-1-2-4--1-1--2-5---1-1-1-|

|---------------------------|
|---------------------------|
|---------------------------| (3x)
|---------------------------|
|-1-2-4--1-1--2-5---1-1-1-1-|
|-1-2-4--1-1--2-5---1-1-1-1-|

|-----------------------|
|-----------------------|
|--------------------2*-| (4x)
|-------2-2/5-4---------|
|-1-2-1-x-x-x-x--1-2----|
|-1-2-1-2-2/5-4--1-2----|

Solo:
|---------5-8-5---|
|--------6-----6--|
|-------6-------6-| (4x)
|-----------------|
|-5-8-5-----------|
|-----------------|

|----------7-10-7---|
|---------8------8--|
|--------8--------8-| (2x)
|-------------------|
|-7-10-7------------|
|-------------------|

|-13-11-10----------13-11-10-|
|----------13-11-10----------|
|----------------------------|
|----------------------------|
|----------------------------|
|----------------------------|

|----------13-11-10----------------------------|
|-13-11-10----------13-11-10-------------------|
|----------------------------13-11-10----------|
|-------------------------------------13-11-10-|
|----------------------------------------------|
|----------------------------------------------|

|---------5-8-5---|
|--------6-----6--|
|-------6-------6-| (4x)
|-----------------|
|-5-8-5-----------|
|-----------------|

|----------7-10-7---|
|---------8------8--|
|--------8--------8-| (2x)
|-------------------|
|-7-10-7------------|
|-------------------|

|-13-11-10----------16-14-13-| ---------------------\
|----------13-11-10----------|                       \
|----------------------------|                        \
|----------------------------|                         \
|----------------------------|                          \
|----------------------------|                           \
                                                        (3x)
|----------13-11-10----------------------------|         /
|-16-14-13----------13-11-10-------------------|        /
|----------------------------13-11-10----------|       /
|-------------------------------------13-11-10-|      /
|----------------------------------------------|     /
|----------------------------------------------| ---/

|----------------------------------|
|----------------------------------|
|----------------------------------| (4x)
|-5-3-2--6-4-2--5-3-2--------------|
|----------------------5-3-2-------|
|----------------------------5-3-2-|

4th Section: (4x)
|-----------------|      |-----------------|
|-----------------|      |-----------------|
|-----------------| (3x) |-----------------|
|---------2-------|      |-----------------|
|-2/6-4-2-0-4-2-3-|      |-2/6-2-4-5-4-5-4-|
|-2/6-4-2---4-2-3-|      |-2/6-2-4-5-4-5-4-|

Repeat 1st Section (2x)

Repeat Intro & fade out.

Key:
/ - Slide
\ - Slide
* - Pinch Harmonic
t - Tap Note
tr - Tremelo Pick
h- Hammer On
p - Pull Off
Show more