• Song:

    Little Bobby

  • Artist:

    Dynamite Boy

  • Album:

    Somewhere in America

standard tuning
strumming pattern is your typical punk rock one

intro:
e|------------------------------------------------|
b|------------------------------------------------|
g|------------------------------------------------|
d|-6-6--6-----For Ages,---------------------------|
a|-4-4--4-----------------------------------------|
e|------------------------------------------------|

Verse Structures


E|x--------------------------------||------------------------------------|
b|x--------------------------------||---LALALA BIT-----------------------|
g|x--------------------------------||------------------------------------|
d|--6-----------6------------------||----6------6------------------------|
a|--4-------4---4---4--------------||----4---6--4------------------------|
E|----------2-------2---6----------||-------4----------------------------|


E|x--------------------------------||------------------------------------|
b|x--------------------------------||---LALALA BIT-----------------------|
g|x--------------------------------||------------------------------------|
d|x--------------------------------||----6------6------------------------|
a|--8--------6-----------8-----6---||----4---6--4------------------------|
E|--6--------4-----------6-----4---||-------4----------------------------|

"doesn't Really wanna wait.
gotta find
 somebody before it gets to late."
Show more