• Song:

    Save Tonight

  • Artist:

    Eagle Eye Cherry

  • Album:

    The Best Of

standard tuning

intro and verse
  pm..   pm..               pm..
e|-0-0-0--1-1-1---|-----0-0--3-3-3-|----------------|----------------|
B|-1-1-1--1-1-1---|-----1-1--3-3-3-|----------------|----------------|
G|-2-2-2--2-2-2---|-0---0-0--0-0-0-|----------------|----------------|
D|-2-2-2--3-3-3---|-0h2-2-2--0-0-0-|----------------|----------------|
A|-0-0-0--3-3-3---|-3---3-3--2-2-2-|----------------|----------------|
E|-0-0-0--x-x-x---|-x---x-x--3-3-3-|----------------|----------------|

chorus
e|-0-0-0--1-1-1---|-----0-0--3-3-3-|----------------|----------------| 
B|-1-1-1--1-1-1---|-----1-1--3-3-3-|----------------|----------------|
G|-2-2-2--2-2-2---|-0---0-0--0-0-0-|----------------|----------------|
D|-2-2-2--3-3-3---|-0h2-2-2--0-0-0-|----------------|----------------|
A|-0-0-0--3-3-3---|-3---3-3--2-2-2-|----------------|----------------|
E|-0-0-0--x-x-x---|-x---x-x--3-3-3-|----------------|----------------|
 |                                                                   |
e|----------------|----------------|----------------|----------------|
B|-----1-------1--|-----1-------3--|----------------|----------------|
G|-------2-------2|-------0-------0|----------------|----------------|
D|---2-------3----|---2-------0----|----------------|----------------|
A|-0-------3------|-3-------2------|----------------|----------------|
E|----------------|----------------|----------------|----------------|

solo 1
e|----------------|----------------|----------------|----------------|
B|----------------|-------/10-8----|---/13----13----|--13--13/15--15-|
G|9/5--5-5-5--5/7-|--9/5-----------|----------------|----------------|
D|----------------|----------------|----------------|----------------|
A|----------------|----------------|----------------|----------------|
E|----------------|----------------|----------------|----------------|

e|-15-15----------|15/17/15--------|----------------|----------------|
B|----------------|----------------|----------------|----------------|
G|----------------|----------------|----------------|----------------|
D|----------------|----------------|----------------|----------------|
A|----------------|----------------|----------------|----------------|
E|----------------|----------------|----------------|----------------|

solo 2
e|----------------|----------------|----------------|----------------|
B|----------------|--------/10-8---|----------------|-------/10-8----|
G|-9/5--5-5-5--5/7|--9/5-----------|9/5--5-5-5--5/7-|--9/5-----------|
D|----------------|----------------|----------------|----------------|
A|----------------|----------------|----------------|----------------|
E|----------------|----------------|----------------|----------------|

e|----------------|----------------|-15-15-15^(17)15|----------------|
B|/13-13----------|--13h15-15/17-15|----------------|-15^(17)-13-----|
G|----------------|----------------|----------------|----------------|
D|----------------|----------------|----------------|----------------|
A|----------------|----------------|----------------|----------------|
E|----------------|----------------|----------------|----------------|

e|----------------|----------------|-15-15-15/17-17-|-12-12-12h13p12-|
B|-13h15-15-15----|-15^-15^-15^-15^|----------------|----------------|
G|----------------|----------------|----------------|----------------|
D|----------------|----------------|----------------|----------------|
A|----------------|----------------|----------------|----------------|
E|----------------|----------------|----------------|----------------|

e|----------------|----------------|----------------|-------15---15--|
B|-15-13----------|----------------|-----------13-15|-13-15^--15^----|
G|-------14-12----|-12h14-14--14-12|-12h14-14-------|----------------|
D|----------------|----------------|----------------|----------------|
A|----------------|----------------|----------------|----------------|
E|----------------|----------------|----------------|----------------|

e|----15----------|----------------|----------------|----------------|
B|-15^--15^-13----|----------------|----------------|----------------|
G|-------------14-|----------------|----------------|----------------|
D|----------------|----------------|----------------|----------------|
A|----------------|----------------|----------------|----------------|
E|----------------|----------------|----------------|----------------|
Show more