• Song:

    Last Song

  • Artist:

    Edward Bear

  • Album:

    Collection

[INTRO]
  F#       F#       G#m      G#m     
G:--------|--------|--------|--------|
D:4--4----|4--4--4-|6--6-6-6|86-4-4--|
A:----4--4|----44--|----6---|------6-|
E:--------|--------|--------|--------|

[VERSE]
          F#           F#                  G#m         G#m           
  Did you know I go to sleep and leave the lights on
         A#m               A#m             G#m             G#m
  Hoping you'd come by and know that I was home and still awake
          F#       F#              G#m          G#m
  But two years go by and still my light's on
          A#m            A#m             B              B
  This is hard for me to say but this is all that I can take

  F#       F#       G#m      G#m      A#m      A#m      G#m      G#m
G:--------|--------|--------|--------|--------|--------|--------|--------|
D:4--4----|4--4--4-|6--6----|86-6--6-|8--8-8--|8--8-8--|6--6-6--|86-4----|
A:----4--4|----44--|----6--6|----66--|----8---|----8--8|----6--6|------6-|
E:--------|--------|--------|--------|--------|--------|--------|--------|

  F#       F#       G#m      G#m      A#m      A#m      B        B
G:--------|--------|--------|--------|--------|--------|--------|6-------|
D:4--4----|4--4--4-|6--6----|66-6--6-|8--8----|8--8--8-|--------|-9-8-6-6|
A:----4--4|----44--|----6--6|----66--|----8--8|----8---|--------|--------|
E:--------|--------|--------|--------|--------|--------|7--77--7|--------|

[CHORUS]
           F#          F#          G#m            G#m
  It's the last song     I'll ever write for you
           A#m                 A#m                  G#m           G#m
  It's the last time that I'll tell you    Just how much I really care
              F#         F#m           G#m           G#m
  This is the last so-on-ong I'll ever sing for you
              A#m             A#m             B        B
  You'll come looking for the light    And it won't be there

  F#       F#       G#m      G#m      A#m      A#m      G#m      G#m
G:--------|--------|--------|--------|--------|--------|--------|--------|
D:4--4----|4--4--4-|6--6----|86-4----|--------|-----8--|6--6----|86-4----|
A:----4--4|----44--|----6--6|------6-|----8--8|----8---|----6--6|------6-|
E:--------|--------|--------|--------|6--6----|6--6----|--------|--------|

  F#       F#       G#m      G#m      A#m      A#m      B        B
G:--------|--------|--------|--------|--------|--------|--------|6-------|
D:4--4----|4--4--4-|6--6----|66-6--6-|8--8----|8--8--8-|--------|-9-8-6-6|
A:----4--4|----44--|----6--6|-----6--|----8--8|----8---|--------|--------|
E:--------|--------|--------|--------|--------|--------|7--077-7|--------|

[BRIDGE]
        F#       F#  G#m7   G#m7             F#     F#          G#m7   G#m7
  But I lo-o-o-o-ove you            Oh yes I do           Yes I do

  F#       F#       G#m7     G#m7     F#       F#       G#m7     G#m7
G:--------|--------|--------|--------|--------|--------|--------|--------|
D:4--4----|4--44-4-|6--6----|86-4----|4--4----|4--4--4-|6--6----|86-4----|
A:----4--4|-----4--|----6--6|------6-|----4--4|----44--|----6--6|------6-|
E:--------|--------|--------|--------|--------|--------|--------|--------|

[VERSE]
          F#                 F#                G#m             G#m
  All the times that I spent waiting wond-ring where you are
         A#m                 A#m               G#m             G#m
  Always knew the time would come when I would start to wonder why
          F#      F#m                 G#m            G#m
  Now the time is here   I don't know where you are
          A#m                A#m               B                   B
  So I'll write you one more song but it's the last time that I'll try

  F#       F#       G#m      G#m      A#m      A#m      G#m      G#m
G:--------|--------|--------|--------|--------|--------|--------|--------|
D:4--4----|4--4--4-|6--6----|66---6--|8--8----|88-8--8-|6--6----|86-4----|
A:----4--4|----44--|----6--6|---6---6|----8--8|----8---|----6--6|------6-|
E:--------|--------|--------|--------|--------|--------|--------|--------|

  F#       F#       G#m      G#m      A#m      A#m      B        B
G:--------|--------|--------|--------|--------|--------|--------|6-------|
D:4--4----|4--4--4-|6--6----|66---6--|8--8----|8--8--8-|--------|-9-8-6-6|
A:----4--4|----44--|----6--6|---6---6|----8--8|----88--|--------|--------|
E:--------|--------|--------|--------|--------|--------|7--077-7|--------|

[CHORUS]
           F#          F#          G#m            G#m
  It's the last song     I'll ever write for you
           A#m                 A#m                  G#m           G#m
  It's the last time that I'll tell you    Just how much I really care
              F#         F#m           G#m           G#m
  This is the last so-on-ong I'll ever sing for you
              A#m             A#m             B        B
  You'll come looking for the light    And it won't be there

  F#       F#       G#m      G#m      A#m      A#m      G#m      G#m
G:--------|--------|--------|--------|--------|--------|--------|--------|
D:4--4----|4--4--4-|6--6----|86-4----|--------|8-------|6--6----|86-4----|
A:----4--4|----44--|----6--6|------6-|----8--8|-8----8-|----6--6|------6-|
E:--------|--------|--------|--------|6--6----|---6-6--|--------|--------|

  F#       F#       G#m      G#m      A#m      A#m      B        B
G:--------|--------|--------|--------|--------|--------|--------|6-------|
D:4--4----|4--4--4-|6--6----|6--6--6-|8--8----|8--8--8-|--------|-9-8-6-6|
A:----4--4|----44--|----6--6|----6---|----8--8|----8---|--------|--------|
E:--------|--------|--------|--------|--------|--------|7--077-7|--------|

[BRIDGE]
        F#       F#  G#m7   G#m7             F#     F#              G#m7   G#m7
  But I lo-o-o-o-ove you            Oh yes I do           Mmm mm mm mm

  F#       F#       G#m7     G#m7     F#       F#       G#m7     G#m7
G:--------|--------|--------|--------|--------|--------|--------|--------|
D:4--4----|4--4--4-|6--6----|86-4----|4--4----|4--4--4-|6--6----|86-4----|
A:----4--4|----44--|----6--6|------6-|----4--4|----44--|----6--6|------6-|
E:--------|--------|--------|--------|--------|--------|--------|--------|

[CODA] (repeat and fade)
           F#          F#          G#m            G#m
  It's the last song     I'll ever write for you
           F#          F#          G#m            G#m
  It's the last song     I'll ever write for you

  F#       F#       G#m      G#m      F#       F#       G#m      G#m
G:--------|--------|--------|--------|--------|--------|--------|--------|
D:4--4----|4--4--4-|6--6----|86-4----|4--4----|4--4--4-|6--6----|86-4----|
A:----4--4|----44--|----6--6|------6-|----4--4|----44--|----6--6|------6-|
E:--------|--------|--------|--------|--------|--------|--------|--------|

Tabbed by Michael Oxner
moxner@nbnet.nb.ca
Sept 1, 2011
Show more