• Song:

    This Is My Life

  • Artist:

    Edward Maya

-------------------------------------------------------------------------------
                             THIS IS MY LIFE - Edward Maya
-------------------------------------------------------------------------------
Tabbed by: diegod
Email: diego@ieatcatsforfun.com

Tuning: Standard (EADGBe)

This is the main 'riff'
  1  &  2  &  3  &  4  &  5  &  6  &  7  &  8  &
e|--------------------------------------------------|
B|---9-----9-----9-----9-----9-----9-----11-9h11/8--|
G|--------------------------------------------------|
D|--------------------------------------------------|
A|--------------------------------------------------|
E|--------------------------------------------------|

In the end of the first part you can do it in two ways:
1)slide from 11th fret to the 8th fret (as above);
2)or you can pull-of from the 11th fret back to the 9th fret and then slide to 8th
(actually i prefer the second mode, because in the next bar you'll need to do a little 
tricky note)
  1  &  2  &  3  &  4  &  5  &  6  &  7  &  8  &
e|--------------------------------------------------|
B|---9-----9-----9-----9-----9-----11--9h11/8-------|
G|-------------------------------------------10-----|
D|--------------------------------------------------|
A|--------------------------------------------------|
E|--------------------------------------------------|

  1  &  2  &  3  &  4  &  5  &  6  &  7  &  8  &
e|--------------------------------------------------|
B|---9-----9-----9-----9-----9-----9-----11-9h11/8--|
G|--------------------------------------------------|
D|--------------------------------------------------|
A|--------------------------------------------------|
E|--------------------------------------------------|
(same as the first bar)

  1  &  2  &  3  &  4  &  5  &  6  &  7  &  8  &
e|--------------------------------------------------|
B|---9-----9-----9-----9--11-11-11-13-9h11/8--------|
G|------------------------------------------10------|
D|--------------------------------------------------|
A|--------------------------------------------------|
E|--------------------------------------------------|

************************************

| /   slide up
| \   slide down
| h   hammer-on
| p   pull-off
| ~   vibrato
| +   harmonic
| x   Mute note
| b   Bend
| pb  Pre-bend
| br  Bend release
| pbr Pre-bend release
| brb Bend release bend

************************************
Show more