Dropped C (CGCFAD)

Main Riff1:
------------------------------------------------------------------|
------------------------------------------------------------------|
------------------------------------------------------------------|
-7--0--0-2-3--5--7------------------------------------------------|
-7--0--0-2-3--5--7------------------------------------------------|
-7--0--0-2-3--5--7------------------------------------------------|

Break:
---------------------------------------------------------------|
---------------------------------------------------------------|
---------------------------------------------------------------|
-7--0--2-3--5--2-----------------------------------------------|
-7--0--2-3--5--2--2-2--7--8-9----------------------------------|
-7--0--2-3--5--2--2-2--7--8-9----------------------------------|

Bridge:
---------------------------------------------------------------|
---------------------------------------------------------------|
---------------------------------------------------------------|
---------------------------------------------------------------|
---------------------------------------------------------------|
------------9-9----------9-9----------9-3--------5-5-5-5...----|
-9-9-9-9...-9-9-9-9-9...-9-9-9-9-9...-9-3-3-3-3--5-5-5-5...----|

Main Riff2:

-----------------------------------------------------------------|
-----------------------------------------------------------------|
-----------------------------------------------------------------|
-7--5--9--7--5--0------------------------------------------------|
-7--5--9--7--5--0-(0------)--------------------------------------|
-7--5--9--7--5--0-(0-0-0...)-------------------------------------|

End:
----------------------------------------------------------------|
----------------------------------------------------------------|
----------------------------------------------------------------|
--7-------------------------------------------------------------|
--7-------------------------------------------------------------|
--7-------------------------------------------------------------|

Song Order:

Main Riff1
Akustic (not tabbed)
Main Riff1
Break
Bridge
Main Riff1
Main Riff2
End
Show more