Tabbed by: Maite Diaz

-- CAPO 2 --

Basically this song plays these four chords over and over.
When the second G progression comes in, the notes vary throughout the song, so feel free 
to play any notes you like. I just wrote down these ones I heard, but it?s great if you 
can improvise a bit.
Practice for a while until you've got it because the tempo goes pretty fast..
Enjoy!!

Am
|---------------------------------------------------------------|
|---------------------------------------------------------------|
|---------------------------------------------------------------|
|-------0-2--------0-2-------0-2--------0-2---------------------|
|--0-3--------0-3--------0-3--------0-3-------------------------|
|---------------------------------------------------------------|

G
|---------------------------------------------------------------|
|---------------------------------------------------------------|
|---------------------------------------------------------------|
|----------0-------------0------------0------------0------------|
|----0--3----------0--3---------0--3---------0--3---------------|
|--3------------3------------3------------3---------------------|

F
|---------------------------------------------------------------|
|---------------------------------------------------------------|
|---------------------------------------------------------------|
|----------0-------------0------------0------------0------------|
|----0--3----------0--3---------0--3---------0--3---------------|
|--1-------------1------------1-----------1---------------------|

G
|---------------------------------------------------------------|
|---------------------------------------------------------------|
|---------------------------------------------------------------|
|----------0-------------0--3--2--0----0--2--0------------------|
|----0--3----------0--3-------------2-----------2---------------|
|--3------------3-----------------------------------------------|

Am                   G
You know we can get away
F                         G
Because i'm calling your name
Am                     G
Every day I feel this pain
F                           G
But you just turn and walk away


When the song ends just strum the four chords.
I just change them a little using these:

Am   G    F    G
0    0    0    0
1    1    1    1
2    0    2    0
2    0    3    0
0    2    3    2
X    3    x    3
Show more