• Song:

    Circle of life

  • Artist:

    Elton John

  • Album:

    Greatest Hits 1970-2002...

----------------------------------------------------------------------------
			     CIRCLE OF LIFE -  The Lion King
----------------------------------------------------------------------------
Email: madmonkey24@cox.net
Hey this is my first tab, so be nice, all the other tabs on here aren't very good, and 
give a good idea of the song. So here it is:

(At the start give an even 8th note strum)
      (intro)                    x8    x4    x8     x4    x8     x8   x8
e|--------------------------------2-----0-----0------2------------0----0---|
B|----3--3--3--3---2--2--2--2-----3-----3-----1------3-----3------0----1---|
G|----0--0--0--0---0--0--0--0-----2-----0-----0------2-----4------0----0---|
D|----2--2--2--2---2--2--2--2-----------0-----2------------4------2----2---|
A|----0--0--0--0---0--0--0--0-----------2-----3------------2------2----3---|
E|----------------------------------------------------------------0--------|

Repeat above once for body of song
Now play this and finish!!!
    x8    x8   x8    x8    x8    x8  x8   x8
e|---0-----1----1-----3-----3-----0---1--------1-----------------------------|
B|---0-----1----3-----3-----3-----1---1----3---1-----------------------------|
G|---2-----2----2-----3-----3-----0---0----4---2-----------------------------|
D|---2-----3----------0-----3-----2---3----4---3-----------------------------|
A|---2----------------------3-----3--------2---------------------------------|
E|---0-----------------------------------------------------------------------|
Show more