• Song:

    Burning Love

  • Artist:

    Elvis Presley

  • Album:

    Burning Love

Elvis Presley - Burning Love

e:---------------------------------|
B:-3-3-3-3--3-3-3--3-3-3-3-3-3-3---|
G:-2-2-4-2--2-4-2--2-4-2-5-2-4-2---|
D:-0-0-0-0--0-0-0--0-0-0-0-0-0-0---|
A:---------------------------------|
E:---------------------------------| Intro X2

e:-1-1-1-1-1-1-1--3-3-3-3--0-0-0-0--------------------------|
B:-3-3-3-3-3-3-3--0-0-0-0--2-2-2-2--3-3-3-3--3-3-3--3-3-3---|
G:-2-2-2-2-2-2-2--0-0-0-0--2-2-2-2--2-2-4-2--2-4-2--2-4-2---|
D:-0-0-0-0-0-0-0--0-0-0-0--2-2-2-2--0-0-0-0--0-0-0--0-0-0---|
A:----------------2-2-2-2--0-0-0-0--------------------------|
E:----------------3-3-3-3-----------------------------------| Main X4
    Dm x7          G x4     A x4

e:-2-2--0-0--3------------------2-2--0-0--3-------------5-----|
B:-2-2--2-2--0----3-5-5b-3------2-2--2-2--0----3-5-5b-3---3---|
G:-4-4--2-2--0--4----------4-2--4-4--2-2--0--4----------------|
D:-4-4--2-2--0------------------4-4--2-2--0-------------------|
A:-2-2--0-0--2------------------2-2--0-0--2-------------------|
E:-----------3----------------------------3-------------------|
  Bm x2  A x2 G                 Bm x2  A x2 G


e:-2-2--0-0--3-3-3-3--0-0-0-0--------------------------|
B:-2-2--2-2--0-0-0-0--2-2-2-2--3-3-3-3--3-3-3--3-3-3---|
G:-4-4--2-2--0-0-0-0--2-2-2-2--2-2-4-2--2-4-2--2-4-2---|
D:-4-4--2-2--0-0-0-0--2-2-2-2--0-0-0-0--0-0-0--0-0-0---|
A:-2-2--0-0--2-2-2-2--0-0-0-0--------------------------|
E:-----------3-3-3-3-----------------------------------| Chorus
  Bm x2  A x2 G x4     A x4


	Repeat Main then do Chorus again then this:


e:-2-2-2--0-0-0--3-3-3-3-3-3---|     e:-0-0-0---------------------|
B:-2-2-2--2-2-2--0-0-0-0-0-0---|     B:-2-2-2---------------------|
G:-4-4-4--2-2-2--0-0-0-0-0-0---|     G:-2-2-2--4-4----------------|
D:-4-4-4--2-2-2--0-0-0-0-0-0---|     D:-2-2-2--4-4----------------|
A:-2-2-2--0-0-0--2-2-2-2-2-2---|     A:-0-0-0--2-2----------------|
E:---------------3-3-3-3-3-3---|X3   E:---------------------------| Ending
   Bm x3   A x3   G x6                   A x3

The Ending can vary depending on version but can be very similar.

There are lots of versions of this song and some of em doesn't even have the little riff 
the chorus,so its optional but the time it takes is mandatory to make sense, be sure to 
to the song first if you are unsure of it, it helps a lot.

Legend:

b = bend
x or X + number = repeat based on the number next to it, if its 3 then repeat that 3 times.
Show more