• Song:

    Secret

  • Artist:

    Emery

-------------------------------------------------------------------------------
			     The Secret - Emery
-------------------------------------------------------------------------------
Tabbed by: Edyyous
Email: "pso_fanatic002@yahoo.com" or "pso_fanatic@hotmail.com"

Tuning: EADGBe

e|---------------------------------------------------------------------------|
B|---0-0-0-0-0-0-------------------------------------------------------------|
G|---------------2-2-2-2-2-2-2-2-2-2-2-2-0-0-0-0-0-0-------------------------|
D|---------------------------------------------------------------------------|
A|--3-3-3-3-3-3-3-3-3-3-3-3-2-2-2-2-2-2-2-2-2-2-2-2--------------------------|
E|---------------------------------------------------------------------------|
                                 X2

e|---------------------------------------------------------------------------|
B|---0-0-0-0-0-0-------------------------------------------------------------|
G|---------------2-2-2-2-2-2-2-2-2-2-2-2-0-0-0-0-0-0-------------------------|
D|---------------------------------------------------------------------------|
A|--3-3-3-3-3-3-3-3-3-3-3-3-2-2-2-2-2-2-2-2-2-2-2-2--------------------------|
E|---------------------------------------------------------------------------|
                                 X2

e|---------------------------------------------------------------------------|
B|---------------------------------------------------------------------------|
G|---0-0-0-0-0-0-------------------------------------------------------------|
D|---------------4-4-4-4-4-4-4-4-4-5-5-5-5-5-5-5-5-5-------------------------|
A|--0-0-0-0-0-0-0-0-0-0-0-0--------------------------------------------------|
E|--------------------------3-3-3-3-3-3-0-0-0-0-0-0--------------------------|

e|---------------------------------------------------------------------------|
B|---------------------------------------------------------------------------|
G|---0-0-0-0-0-0-------------------------------------------------------------|
D|---------------4-4-4-4-4-4-------------------------------------------------|
A|--0-0-0-0-0-0-0-0-0-0-0-0--------------------------------------------------|
E|---------------------------------------------------------------------------|

| /  slide up
| \  slide down
| h  hammer-on
| p  pull-off
| ~  vibrato
| +  harmonic
| x  Mute note
===============================================================================
Show more