• Song:

    Secret

  • Artist:

    Emery

kae so this is the intro for the secret by emery.
its my first tab so don texpect it to be perfect.
this is a pretty tight song, i will add the rest eventually,
when i feel its accurate enough. alright. hope you enjoy this intro i think
its the most accurate and easy-to-play one you can find.

pt.1
|-----------------------------------------------------------------------------|
|-----------------------------------------------------------------------------|
|-----------------------------------------------------------------------------|
|--9---9---9---9---9---9---7---7---7---7---7---7---7---7---7---7---7---7---7--|
|-----------------------------------------------------------------------------|
|8---8---8---8---8---8---8---8---8---8---8---8---7---7---7---7---7---7---7----|

pt.2
|---------------------------------------------------|
|---------------------------------------------------|
|---------------------------------------------------|
|--7---7---7---7---7---7---5---5---5---5---5---5----|
|---------------------------------------------------|
|7---7---7---7---7---7---7---7---7---7---7---7------|

pt.3
|------------------------------------------------------------------------------------------------|
|------------------------------------------------------------------------------------------------|
|------------------------------------------------------------------------------------------------|
|--5---5---5---5---5---5---4---4---4---4---4---4---4---4---4---4---4---4---5---5---5---5---5---5-|
|------------------------------------------------------------------------------------------------|
|5---5---5---5---5---5---5---5---5---5---5---5---3---3---3---3---3---3---3---3---3---3---3---3---|


pt.4
|---------------------------------------------------|
|---------------------------------------------------|
|---------------------------------------------------|
|--5---5---5---5---5---5---4---4---4---4---4---4/9~-|
|---------------------------------------------------|
|5---5---5---5---5---5---5---5---5---5---5---5------|
ORDER

pt.1
pt.2
pt.1
pt.2
pt.3
pt.4
Show more