• Song:

    Secret

  • Artist:

    Emery

As I do with most of my tabs I just found a tab the was really close and added in all of 
extra parts they forgot.

This wont have all of the times you repeat everything or the order completely but it 
have almost every part to the song so just mess with it

Intro

Guitar 1
E|---------------------------------------|
B|---------------------------------------|
G|---------------------------------------|
D|-9-9-9-9-9-9-7-7-7-7-7-7-7-7-7-7-7-7-7-|
A|---------------------------------------|
E|8-8-8-8-8-8-8-8-8-8-8-8-7-7-7-7-7-7-7--|

E|--------------------------|
B|--------------------------|
G|--------------------------|
D|-7-7-7-7-7-7-5-5-5-5-5-5--|
A|--------------------------|
E|7-7-7-7-7-7-7-7-7-7-7-7---|

E|---------------------------------------|
B|---------------------------------------|
G|---------------------------------------|
D|-9-9-9-9-9-9-7-7-7-7-7-7-7-7-7-7-7-7-7-|
A|---------------------------------------|
E|8-8-8-8-8-8-8-8-8-8-8-8-7-7-7-7-7-7-7--|

E|--------------------------|
B|--------------------------|
G|--------------------------|
D|-7-7-7-7-7-7-5-5-5-5-5-5--|
A|--------------------------|
E|7-7-7-7-7-7-7-7-7-7-7-7---|

E|--------------------------------------------------|
B|--------------------------------------------------|
G|--------------------------------------------------|
D|-5-5-5-5-5-5-4-4-4-4-4-4-4-4-4-5-5-5-5-5-5-5-5-5--|
A|--------------------------------------------------|
E|5-5-5-5-5-5-5-5-5-5-5-5-3-3-3-3-3-3-3-0-0-0-0-0---|

E|-----------------------------|
B|-----------------------------|
G|-----------------------------|
D|-5-5-5-5-5-5-4-4-4-4-4-4/9~--|
A|-----------------------------|
E|5-5-5-5-5-5-5-5-5-5-5-5------|


Bridge before vocals

E|-----------------------|
B|-----8--8--8--8--8--8--|
G|---11-11-11-11-11-11---|
D|-----------------------|
A|-----------------------|
E|-----------------------|

Verse (there is some deviations of it but they are subtle)

E|-----------------------|
B|-----8--8--8--8--8--8--|
G|---11-11-11-11-11-11---|
D|-----------------------|   x2
A|-----------------------|
E|-----------------------|

E|----------------------|
B|----7--7--7--7--7--7--|
G|---7--7--7--7--7--7---|
D|----------------------|   x2
A|----------------------|
E|----------------------|

E|----------------------|
B|----8--8--8--8--8--8--|
G|---5--5--5--5--5--5---|
D|----------------------|   x2
A|----------------------|
E|----------------------|

E|----------------------|
B|----7--7--7--7--7--7--|
G|---7--7--7--7--7--7---|
D|----------------------|
A|----------------------|
E|----------------------|

E|----------------------|
B|----7--7--7--7--7--7--|
G|----------------------|
D|---9--9--9--9--9--9---|
A|----------------------|
E|----------------------|

When it starts to change it is just a different strum pattern and adds some high e 7th 
Just mess around with it a bit

Pretty much repeats up to the solo

Solo

E|-----------------------------------------------|
B|---7--7--7-------------------------------------|
G|--4--4--4--4~---4-------------4-7-7------------|
D|------------------5-5-------5------------------|
A|----------------------5-5-----------5-5-5-5\0--|
E|-----------------------------------------------|

E|----------------------------------------------|
B|---7--7--7--7b8b7--5-----------5-7-8-5-4-7-5--|
G|--4--4--4--4---------8-4-----4----------------|
D|-------------------------5~-------------------|
A|----------------------------------------------|
E|----------------------------------------------|

E|----------------------------------------------|
B|--7/8---8/10---10/12--5-7-8-7-8~--7-8-7-8-8---|
G|------5------7--------------------------------|
D|----------------------------------------------|
A|----------------------------------------------|
E|----------------------------------------------|

E|--7---7---5---5------------------|
B|---8---8---5---5----7~-----------|
G|----9---9---7---7----------------|
D|---------------------------------|
A|---------------------------------|
E|---------------------------------|


Verse(palm muted)

E|----------------------------|
B|----------------------------|
G|----------------------------|
D|----------------------------|
A|-7-x6--5-x6--3-x6--2-x6-----|
E|-0-----0-----0-----0--------|

Outtro

E|--15-15~-14------15-15-14-12-14---15-15-15-14~-14------15-15-14-12-14-----|
B|------------15------------------------------------15----------------------|
G|--------------------------------------------------------------------------|
D|--------------------------------------------------------------------------|
A|--------------------------------------------------------------------------|
E|--------------------------------------------------------------------------|

E|--15-14-15-14-14------15-14-15-17-17~-------------------------------------|
B|-----------------15-------------------------------------------------------|
G|--------------------------------------------------------------------------|
D|--------------------------------------------------------------------------|
A|--------------------------------------------------------------------------|
E|--------------------------------------------------------------------------|


So yeah, the middle solo wasn't really that hard to figure out but no one had tabbed it 
so I figured I would. Makes it easier to figure out again if I forget.
Show more