• Song:

    Adieu

  • Artist:

    Enter Shikari

  • Album:

    Take To The Skies

I stick to what i said on my kickin back ta, its probli not perfect but no1 else has 
one so i thought id give it a go :]

any suggestions email me joel-92@hotmail.co.uk taa

and i know e.s play in drop C# and this is drop d but it sounds alrite to me


after acoustic intro

G|---------------------------------------------------------|
D|---------------------------------------------------------|
A|-----------8--6--4-----------464-4-----------------------|
D|-0~----------------5----------------5--------------------|


G|-----------------------------------------------------------------------|
D|-----------------------------------------------------------------------|  x2
A|------------------------8-6-4--------------4644------------------------|
D|-0-000--0-000-0-000--0--------5--5-555--5-------0-000-0-000-00000000---|

G|------------------------------------------------------|
D|------------------------------------------------------|
A|-8~-6~-4~----8~-6~-4h6p4/-8~-6~-4~---/8~-8~-4~--------|   x2
D|----------5~-----------------------5~-----------------|


G|----------------------|
D|----------------------|
A|---6--4--6--4---------|   x2
D|----------------------|

G|-------------------------------------------------------|
D|-------------------------------------------------------|
A|---------9--7---------------464------------------------|
D|---------------9--5--------------5---------------------|


G|----------------------------------------------------------------------|
D|----------------------------------------------------------------------|  x2
A|------------------------9-7---------------4744------------------------|
D|-0-000--0-000-0-000--0------9-5--5-555--5------0-000-0-000-00000000---|

G|------------------------------------------------------|
D|------------------------------------------------------|
A|-8~-6~-4~----8~-6~-4h6p4/-8~-6~-4~---/8~-8~-4~--------|   x2
D|----------5~-----------------------5~-----------------|

G|----------------------|
D|----------------------|
A|---6--4---------------|   x2
D|----------------------|

G|----------------------|
D|----------------------|
A|--4---------4---------|   x2
D|----5---------5-------|

Acoustic Bridge

G|--------------------------|
D|--------------------------|
A|------------5--5--5--5----|   x2
D|-0--0--0--0---------------|


G|---------------------|
D|---------------------|
A|--5~-0~--------------|   x2
D|---------4~--5~------|


G|---------------------------------------|
D|---------------------------------------|
A|--44444444----------44444444-66666666--|
D------------55555555--------------------|


repeat til end
Show more