• Song:

    Arguing With Thermometers

  • Artist:

    Enter Shikari

  • Album:

    Arguing With Thermomete...

Arguing with Thermometers (Bass Tab)

 Intro
F|---------------------------------------------------------------|
C|---------------------------------------------------------------|
G|---------------------------------------------------------------|
D|--22222---5-----0-2-5-4-2-2-----22222---5----54202-(x2)--------|

F|---------------------------------------------------------------|
C|---------------------------------------------------------------|
G|---------------------------------------------------------------|
D|--0-2-5-4-0----------------------------------------------------|
 
Thats the sound of another door shutting in..
F|---------------------------------------------------------------|
C|------------4-7-7-9-9-7-4-4--4-0-4-7-6-0-44-4-(x3)-------------|
G|--5-5-5-0-5----------------------------------------------------|
D|---------------------------------------------------------------|

F|---------------------------------------------------------------|
C|------------4-7-7-9-9------------------------------------------|
G|--5-5-5-0-5----------------------------------------------------|
D|---------------------------------------------------------------|

Rous Rants..
F|---------------------------------------------------------------|
C|---------------------------------------------------------------|
G|---------------------------------------------------------------|
D|-2222222222222222---/14141414141414141414141414141414-(x4)-----|


Bass Dubstep bit (optional)
F|---------------------------------------------------------------|
C|---------------------------------------------------------------|
G|-----------2-------------------------2-------------------------|
D|-2-23332-23-303-(x8)--2-2-3-3-2--2-3---3-0-3-(x4)--------------|


Thats the sound of another door shutting in.. 
F|---------------------------------------------------------------|
C|------------4-7-7-9-9-7-4-4--4-0-4-7-6-0-44-4-(x3)-------------|
G|--5-5-5-0-5----------------------------------------------------|
D|---------------------------------------------------------------|

F|---------------------------------------------------------------|
C|------------4-7-7-9-9------------------------------------------|
G|--5-5-5-0-5----------------------------------------------------|
D|---------------------------------------------------------------|

Rous Rants..
F|---------------------------------------------------------------|
C|---------------------------------------------------------------|
G|---------------------------------------------------------------|
D|-2222222222222222---/14141414141414141414141414141414-(x4)-----|

Well take you down!
F|---------------------------------------------------------------|
C|---------------------------------------------------------------|
G|---------------------------------------------------------------|
D|-22222-(x3)---2---2-2-22---------------------------------------|



STAND YOUR GROUND!!!


Bass Dubstep bit (optional)
F|---------------------------------------------------------------|
C|---------------------------------------------------------------|
G|-----------2-------------------------2-------------------------|
D|-2-23332-23-303-(x8)--2-2-3-3-2--2-3---3-0-3-(x4)--------------|

 
 Outro
F|----------------------------------------4----------------------|
C|--------------------------4--5--4--5--5------------------------|
G|--------------2------------------------------------------------|
D|-2223332222-33-303-(x2)-2--3--2--3--3------(x2)----------------|
Show more