• Song:

    Kickin Back On The Surface Of Your Cheek

  • Artist:

    Enter Shikari

Album: Anything Can Happen In The Next Half Hour(Single)
BPM:150

Enter Shikari's sound is just amazing, I beleive this is a B side on the single but it 
just as good as their album stuff. Here's the guitar it's fairly simple all you have to worry
about is the rhythm and fast muted strokes. Don't worry if this sounds odd on its own, 
synth and bass really make the song. Some of this may be hard to hear in the song due to 
load bass but I'm 90% sure this is all right.

INTRO x2
(0:00)
D----------------------|
A----------------------|
F--17--13--18--20-15---|
C----------------------|
G----------------------|
C----------------------|

VERSE pt1
(0:11)
D--------------------------------------------------------------------------|
A--------------------------------------------------------------------------|
F--13--11-10--8----15----13----15--13--11--10----11--15--17-17-17-17-17-17-|
C--13--11-10--8----15----13----15--13--11--10----11--15--17-17-17-15-17-17-|
G--11--9--8---6----13----11----13--11--9---8-----9---13--15-15-15-15-15-15-|
C--------------------------------------------------------------------------|

VERSE pt2 x4
(0:22)
D--------------------------------------------------------------------------|
A--------------------------------------------------------------------------|
F--------------------------------------------------------------------------|
C11-11-11-11-11-11-11-11--8-8-8-8-8-8-8-8--4-4-4-4-4-4-4-4--6-6-6-6-6-6-6-6|
G11-11-11-11-11-11-11-11--8-8-8-8-8-8-8-8--4-4-4-4-4-4-4-4--6-6-6-6-6-6-6-6|
C11-11-11-11-11-11-11-11--8-8-8-8-8-8-8-8--4-4-4-4-4-4-4-4--6-6-6-6-6-6-6-6|

CHORUS x2
(0:45)
D-----------------------------------------------------------------|
A-----------------------------------------------------------------|
F-----------------------------------------------------------------|
C--13-13-13-13-13--13--8-8-8-8-8--8--4-4-4-4-4--4--6-6-6-6-6--6---|
G--13-13-13-13-13--13--8-8-8-8-8--8--4-4-4-4-4--4--6-6-6-6-6--6---|
C--13-13-13-13-13--13--8-8-8-8-8--8--4-4-4-4-4--4--6-6-6-6-6--6---|
PM .  .  .  .  .      . . . . .     . . . . .     . . . . .
Breath In Breath Out

INTRO
(0:57)
Take in all you see you begin to register...

VERSE pt1
(1:09)

VERSE pt2 x2
(1:20)

CHORUS
(1:32)
Breath In Breath Out

(1:44)
D-------|
A-------|
F-------|
C--1~---|
G--1~---|
C--1~---|

BRIDGE x3
(1:48)
D--------------------------------------------------------------------------|
A--8----8--8--8--8----6----6--6--6--6----6----6--6--6--6----6----6--6--6--6|
F--8----8--8--8--8----8----8--8--8--8----10---10-10-10-10---8----8--8--8--8|
C--8----8--8--8--8----8----8--8--8--8----8----8--8--8--8----6----6--6--6--6|
G--6----6--6--6--6----6----6--6--6--6----6----6--6--6--6----6----6--6--6--6|
C--------------------------------------------------------------------------|
(These are spaced out more to make it easier to read, the 10 makes the chords out of sync.)

D---------------------------------------------------------------------------|
A--8----8--8--8--8----6----6--6--6--6----6----6--6--6--6---6-6-6-6-6-6-6-6-6|
F--8----8--8--8--8----8----8--8--8--8----10---10-10-10-10--8-8-8-8-8-8-8-8-8|
C--8----8--8--8--8----8----8--8--8--8----8----8--8--8--8---6-6-6-6-6-6-6-6-6|
G--6----6--6--6--6----6----6--6--6--6----6----6--6--6--6---6-6-6-6-6-6-6-6-6|
C---------------------------------------------------------------------------|

(2:19)
D-------------------------------------------------------------|
A-------------------------------------------------------------|
F--------8\---8\---8-8-8-8-8----12b13r12-8-12b13r12-8-8b9-8---|
C--1-1-1-8\-1-8\-1-8-8-8-8-8----------------------------------|
G--1-1-1-6\-1-6\-1-6-6-6-6-6----------------------------------|
C--1-1-1----1----1--------------------------------------------|
PM . . .    .    .

D--------------------------------------------------------------------|
A--------------------------------------------------------------------|
F--------8\---8\---8-8-8-8-8----10h12p10-x4-1h13p12-x4-13h15p13-x4---|
C--1-1-1-8\-1-8\-1-8-8-8-8-8-----------------------------------------|
G--1-1-1-6\-1-6\-1-6-6-6-6-6-----------------------------------------|
C--1-1-1----1----1---------------------------------------------------|
PM . . .    .    .

D-------------------------------------------------------------|
A-------------------------------------------------------------|
F--------8\---8\---8-8-8-8-8----12b13r12-8-12b13r12-8-8b9-8---|
C--1-1-1-8\-1-8\-1-8-8-8-8-8----------------------------------|
G--1-1-1-6\-1-6\-1-6-6-6-6-6----------------------------------|
C--1-1-1----1----1--------------------------------------------|
PM . . .    .    .

D-------------------------------------------|
A-------------------------------------------|
F--------8\---8\---8\-----------------------|
C--1-1-1-8\-1-8\-1-8\1----------------------|
G--1-1-1-6\-1-6\-1-6\1----------------------|
C--1-1-1----1----1---1-PICKSLIDE UP TO 13---|
PM . . .    .    .

(2:50) x7
D---------------------------------------------------------------|
A---------------------------------------------------------------|
F------------------------------------8-x-x-8--8-8-8-8-8-8-8-8---|
C--1-1-1-1-1--1---1--4/-3--1-1-1-1-1-8-x-x-8--6-6-6-6-6-6-6-6---|
G--1-1-1-1-1--1---1--------1-1-1-1-1-6-x-x-6--6-6-6-6-6-6-6-6---|
C--1-1-1-1-1--1-1-1--------1-1-1-1-1----------------------------|
PM . . . . .  . . .	   . . . . .
Take to the skies It's time to live
(This fades out  at 7 repeats so it's worth adding one more so that you finish in time
If so finish on:)

D-------|
A-------|
F-------|
C--1~---|
G--1~---|
C--1~---|

Long live sugar hyped, dance metal!
Any problems/corrections/queries about the tab then see my profile, if you're not a 
of the community then you can email me-this is also on my profile.

END
Show more