• Song:

    Quelle Surprise

  • Artist:

    Enter Shikari

  • Album:

    Quelle Surprise (Single...

Title: Quelle Surprise	
Artist: Enter Shikari	
Album: Quelle Surprise EP	
Author: Jack Caddy

NOTE: This is my first tab so may have a few little mistakes as i only tabbed this from
      watching Quelle Surprise live in Texas and at Dingwalls.

~ = Let Ring
. = Palm Mute
* = Pinch Harmonic
^ = Bend
h = Hammer On
p = Pull Off

Guitar - Drop D Tuning

0:35 - 0:52 TAPPING BIT, LISTEN TO IT FOR TIMING ETC. - NOT 100% SURE ABOUT THIS BIT
E|---------------------------|---------------------------|---------------------------|
B|---------------------------|---------------------------|---------------------------|
G|---------------------------|---------------------------|---------------------------|
D|---------------------------|---------------------------|---------------------------|
A|--h12p7p0------------------|-h14p7p0-------------------|-h15p7p0-------------------|
D|---------------------------|---------------------------|---------------------------|
 
 VERSE 0:52
E|---------------------------|---------------------------|---------------------------|
B|---------------------------|---------------------------|---------------------------|
G|---------------------------|---------------------------|---------------------------|
D|-0---0----0---0---0----0---|-3---3----3---3---3----3---|-0---0----0---0---0----0---|
A|-0---0----0---0---0----0---|-3---3----3---3---3----3---|-0---0----0---0---0----0---|
D|-0---0----0---0---0----0---|-3---3----3---3---3----3---|-0---0----0---0---0----0---|


E|---------------------------|---------------------------|---------------------------|
B|---------------------------|---------------------------|---------------------------|
G|---------------------------|---------------------------|---------------------------|
D|-3---3----3---3---3----3---|-8---8----8---8---8----8---|-5---5----5---5---5----5---|
A|-3---3----3---3---3----3---|-8---8----8---8---8----8---|-5---5----5---5---5----5---|
D|-3---3----3---3---3----3---|-8---8----8---8---8----8---|-5---5----5---5---5----5---|


E|---------------------------|---------------------------|---------------------------|
B|---------------------------|---------------------------|---------------------------|
G|---------------------------|---------------------------|---------------------------|
D|-8---8----8---8---8----8---|-10--10---10--10--10---10--|-0---0----0---0---0----0---|
A|-8---8----8---8---8----8---|-10--10---10--10--10---10--|-0---0----0---0---0----0---|
D|-8---8----8---8---8----8---|-10--10---10--10--10---10--|-0---0----0---0---0----0---|


E|---------------------------|---------------------------|---------------------------|
B|---------------------------|---------------------------|---------------------------|
G|---------------------------|---------------------------|---------------------------|
D|-3---3----3---3---3----3---|-0---0----0---0---0----0---|-3---3----3---3---3----3---|
A|-3---3----3---3---3----3---|-0---0----0---0---0----0---|-3---3----3---3---3----3---|
D|-3---3----3---3---3----3---|-0---0----0---0---0----0---|-3---3----3---3---3----3---|


E|---------------------------|---------------------------|---------------------------|
B|---------------------------|---------------------------|---------------------------|
G|---------------------------|---------------------------|---------------------------|
D|-8---8----8---8---8----8---|-5---5----5---5---5----5---|-8---8----8---8---8----8---|
A|-8---8----8---8---8----8---|-5---5----5---5---5----5---|-8---8----8---8---8----8---|
D|-8---8----8---8---8----8---|-5---5----5---5---5----5---|-8---8----8---8---8----8---|

                                 
E|---------------------------|
B|---------------------------|
G|---------------------------| 
D|-10--10---10--10--10---10--|
A|-10--10---10--10--10---10--| 
D|-10--10---10--10--10---10--|
  

CHORUS 1:10
E|---------------------------|---------------------------|
B|---------------------------|---------------------------|
G|---------------------------|---------------------------|
D|-5---5----5---5---5----5---|-5---5----5---5---5----5---|
A|-5---5----5---5---5----5---|-5---5----5---5---5----5---|
D|-5---5----5---5---5----5---|-5---5----5---5---5----5---|


E|---------------------------|---------------------------|---------------------------|
B|---------------------------|---------------------------|---------------------------|
G|---------------------------|---------------------------|---------------------------|
D|-0---0----0---0---0----0---|-0---0----0---0---0----0---|-8---8----8---8---8----8---|
A|-0---0----0---0---0----0---|-0---0----0---0---0----0---|-8---8----8---8---8----8---|
D|-0---0----0---0---0----0---|-0---0----0---0---0----0---|-8---8----8---8---8----8---|


E|---------------------------|---------------------------|---------------------------|
B|---------------------------|---------------------------|---------------------------|
G|---------------------------|---------------------------|---------------------------|
D|-8---8----8---8---8----8---|-10--10---10--10--10---10--|-10--10---10--10--10---10--|
A|-8---8----8---8---8----8---|-10--10---10--10--10---10--|-10--10---10--10--10---10--|
D|-8---8----8---8---8----8---|-10--10---10--10--10---10--|-10--10---10--10--10---10--|


E|---------------------------|---------------------------|---------------------------|
B|---------------------------|---------------------------|---------------------------|
G|---------------------------|---------------------------|---------------------------|
D|-5---5----5---5---5----5---|-5---5----5---5---5----5---|-0---0----0---0---0----0---|
A|-5---5----5---5---5----5---|-5---5----5---5---5----5---|-0---0----0---0---0----0---|
D|-5---5----5---5---5----5---|-5---5----5---5---5----5---|-0---0----0---0---0----0---|


E|---------------------------|---------------------------|---------------------------|
B|---------------------------|---------------------------|---------------------------|
G|---------------------------|---------------------------|---------------------------|
D|-0---0----0---0---0----0---|-10--10---10--10--10---10--|-10--10---10--10--10---10--|
A|-0---0----0---0---0----0---|-8---8----8---8---8----8---|-8---8----8---8---8----8---|
D|-0---0----0---0---0----0---|-8---8----8---8---8----8---|-8---8----8---8---8----8---|

                                                           
E|---------------------------|---------------------------|
B|---------------------------|---------------------------|
G|---------------------------|---------------------------|
D|-10--10---10--10--10---10--|-10--10---10--10--10---10--|
A|-10--10---10--10--10---10--|-10--10---10--10--10---10--|
D|-10--10---10--10--10---10--|-10--10---10--10--10---10--|

     
 VERSE 1:27
E|---------------------------|---------------------------|---------------------------|
B|---------------------------|---------------------------|---------------------------|
G|---------------------------|---------------------------|---------------------------|
D|-10--10---10--10--10---10--|-10--10---10--10--10---10--|-0---0----0---0---0----0---|
A|-10--10---10--10--10---10--|-10--10---10--10--10---10--|-0---0----0---0---0----0---|
D|-10--10---10--10--10---10--|-10--10---10--10--10---10--|-0---0----0---0---0----0---|


E|---------------------------|---------------------------|---------------------------|
B|---------------------------|---------------------------|---------------------------|
G|---------------------------|---------------------------|---------------------------|
D|-3---3----3---3---3----3---|-0---0----0---0---0----0---|-3---3----3---3---3----3---|
A|-3---3----3---3---3----3---|-0---0----0---0---0----0---|-3---3----3---3---3----3---|
D|-3---3----3---3---3----3---|-0---0----0---0---0----0---|-3---3----3---3---3----3---|


E|---------------------------|---------------------------|---------------------------|
B|---------------------------|---------------------------|---------------------------|
G|---------------------------|---------------------------|---------------------------|
D|-8---8----8---8---8----8---|-5---5----5---5---5----5---|-8---8----8---8---8----8---|
A|-8---8----8---8---8----8---|-5---5----5---5---5----5---|-8---8----8---8---8----8---|
D|-8---8----8---8---8----8---|-5---5----5---5---5----5---|-8---8----8---8---8----8---|


E|---------------------------|---------------------------|---------------------------|
B|---------------------------|---------------------------|---------------------------|
G|---------------------------|---------------------------|---------------------------|
D|-10--10---10--10--10---10--|-0---0----0---0---0----0---|-3---3----3---3---3----3---|
A|-10--10---10--10--10---10--|-0---0----0---0---0----0---|-3---3----3---3---3----3---|
D|-10--10---10--10--10---10--|-0---0----0---0---0----0---|-3---3----3---3---3----3---|


E|---------------------------|---------------------------|---------------------------|
B|---------------------------|---------------------------|---------------------------|
G|---------------------------|---------------------------|---------------------------|
D|-0---0----0---0---0----0---|-3---3----3---3---3----3---|-8---8----8---8---8----8---|
A|-0---0----0---0---0----0---|-3---3----3---3---3----3---|-8---8----8---8---8----8---|
D|-0---0----0---0---0----0---|-3---3----3---3---3----3---|-8---8----8---8---8----8---|


E|---------------------------|---------------------------|---------------------------|
B|---------------------------|---------------------------|---------------------------|
G|---------------------------|---------------------------|---------------------------|
D|-5---5----5---5---5----5---|-8---8----8---8---8----8---|-10--10---10--10--10---10--|
A|-5---5----5---5---5----5---|-8---8----8---8---8----8---|-10--10---10--10--10---10--|
D|-5---5----5---5---5----5---|-8---8----8---8---8----8---|-10--10---10--10--10---10--|
   

CHORUS 1:45
E|---------------------------|---------------------------|---------------------------|
B|---------------------------|---------------------------|---------------------------|
G|---------------------------|---------------------------|---------------------------|
D|-5---5----5---5---5----5---|-5---5----5---5---5----5---|-0---0----0---0---0----0---|
A|-5---5----5---5---5----5---|-5---5----5---5---5----5---|-0---0----0---0---0----0---|
D|-5---5----5---5---5----5---|-5---5----5---5---5----5---|-0---0----0---0---0----0---|


E|---------------------------|---------------------------|---------------------------|
B|---------------------------|---------------------------|---------------------------|
G|---------------------------|---------------------------|---------------------------|
D|-0---0----0---0---0----0---|-10--10---10--10--10---10--|-10--10---10--10--10---10--|
A|-0---0----0---0---0----0---|-8---8----8---8---8----8---|-8---8----8---8---8----8---|
D|-0---0----0---0---0----0---|-8---8----8---8---8----8---|-8---8----8---8---8----8---|


E|---------------------------|---------------------------|---------------------------|
B|---------------------------|---------------------------|---------------------------|
G|---------------------------|---------------------------|---------------------------|
D|-10--10---10--10--10---10--|-10--10---10--10--10---10--|-5---5----5---5---5----5---|
A|-10--10---10--10--10---10--|-10--10---10--10--10---10--|-5---5----5---5---5----5---|
D|-10--10---10--10--10---10--|-10--10---10--10--10---10--|-5---5----5---5---5----5---|


E|---------------------------|---------------------------|---------------------------|
B|---------------------------|---------------------------|---------------------------|
G|---------------------------|---------------------------|---------------------------|
D|-5---5----5---5---5----5---|-0---0----0---0---0----0---|-0---0----0---0---0----0---|
A|-5---5----5---5---5----5---|-0---0----0---0---0----0---|-0---0----0---0---0----0---|
D|-5---5----5---5---5----5---|-0---0----0---0---0----0---|-0---0----0---0---0----0---|


E|---------------------------|---------------------------|---------------------------|
B|---------------------------|---------------------------|---------------------------|
G|---------------------------|---------------------------|---------------------------|
D|-10--10---10--10--10---10--|-10--10---10--10--10---10--|-10--10---10--10--10---10--|
A|-8---8----8---8---8----8---|-8---8----8---8---8----8---|-10--10---10--10--10---10--|
D|-8---8----8---8---8----8---|-8---8----8---8---8----8---|-10--10---10--10--10---10--|


E|---------------------------|
B|---------------------------|
G|---------------------------|
D|-10--10---10--10--10---10--|
A|-10--10---10--10--10---10--|
D|-10--10---10--10--10---10--|


PRE BREAKDOWN 2:02
E|---------------------------|---------------------------|---------------------------|
B|---------------------------|---------------------------|---------------------------|
G|---------------------------|---------------------------|---------------------------|
D|-0~~-----------------------|------- 0~~----------------|-0----3----2----0~---------|
A|-0~~-----------------------|------- 0~~----------------|-0----3----2----0~---------|
D|-0~~-----------------------|-3*^----0~~----------------|-0----3----2----0~---------|
  IF YOU STAND FOR NOTHING...                                   .    .    .

E|---------------------------|---------------------------|---------------------------|
B|---------------------------|---------------------------|---------------------------|
G|---------------------------|---------------------------|---------------------------|
D|-1~----0----0--0----0--0---|-0--0----0--0----0--0------|-0--0----------------------|
A|-1~----0----0--0----0--0---|-0--0----0--0----0--0------|-0--0----------------------|
D|-1~----0----0--0----0--0---|-0--0----0--0----0--0------|-0--0----------------------|


BREAKDOWN x4 [First 2 times no lyrics then lyrics come in] 2:19
E|---------------------------|---------------------------|---------------------------|
B|---------------------------|---------------------------|---------------------------|
G|---------------------------|---------------------------|---------------------------|
D|-0---0---0---00---0---00---|-0---0---0---00---0---00---|-0---0---0---00---0---00---|
A|-0---0---0---00---0---00---|-0---0---0---00---0---00---|-0---0---0---00---0---00---|
D|-0---0---0---00---0---00---|-0---0---0---00---0---00---|-0---0---0---00---0---00---|
   .   .   .   ..   .   ..     .   .   .   ..   .   ..     .   .   .   ..   .   ..

E|---------------------------|
B|---------------------------|
G|---------------------------|
D|-3---3---3---33---3---33---|
A|-3---3---3---33---3---33---|
D|-3---3---3---33---3---33---|
   .   .   .   ..   .   ..

SYNTHY BIT 2:53

[3:27 Rory plays another guitar bit but i can't work it out]

BRIDGEY THING x2 3:45
E|---------------------------|---------------------------|---------------------------|
B|---------------------------|---------------------------|---------------------------|
G|---------------------------|---------------------------|---------------------------|
D|-5--5--5--5--5--5--5--5----|-0--0--0--0--0--0--0--0----|--9--9--9--9--9--9--9--9---|
A|-5--5--5--5--5--5--5--5----|-0--0--0--0--0--0--0--0----|-10-10-10-10-10-10-10-10---|
D|-5--5--5--5--5--5--5--5----|-0--0--0--0--0--0--0--0----|-10-10-10-10-10-10-10-10---|

E|---------------------------|
B|---------------------------|
G|---------------------------|
D|-10-10-10-10-10-10-10-10---|
A|-10-10-10-10-10-10-10-10---|
D|-10-10-10-10-10-10-10-10---|


BRIDGEY THING BUT DIFFERENT STRUMMING x2 4:02 
E|---------------------------|---------------------------|---------------------------|
B|---------------------------|---------------------------|---------------------------|
G|---------------------------|---------------------------|---------------------------|
D|-5--5--5--5--5--5--5--5----|-0--0--0--0--0--0--0--0----|--9--9--9--9--9--9--9--9---|
A|-5--5--5--5--5--5--5--5----|-0--0--0--0--0--0--0--0----|-10-10-10-10-10-10-10-10---|
D|-5--5--5--5--5--5--5--5----|-0--0--0--0--0--0--0--0----|-10-10-10-10-10-10-10-10---|

E|---------------------------|    
B|---------------------------|
G|---------------------------|   LET THE FINAL CHORD RING THEN THAT'S IT!
D|-10-10-10-10-10-10-10-10---|
A|-10-10-10-10-10-10-10-10---|
D|-10-10-10-10-10-10-10-10---|



Cheers, I'll happily take corrections and CONSTRUCTIVE criticism :) x
Show more