sponsored links
Eppu Normaali - Kaljanlanttauslaulu
Album: Maximum Jee & Jee
Tuning: Standard

I ain't absolutely sure about anything here, but this is my best guess.
I've played guitar for about two years now so I ain't that good to figure out
the parts. Especially the verse is something that is very hard, but here it 
is anyway. Please comment if you have any opinions about some parts. Thank You.

Riff 1:

  A             D          E   D        A G A
|-----------------------------------------------------------|
|-----------------------------------------------------------|
|-----------------------------------------------------------|
|---------------7-7-7-7-7--9-9-7-7--------------------------|     
|-7-7-7-7-7-----5-5-5-5-5--7-7-5-5------7-5-7-7-------------| 
|-5-5-5-5-5-----------------------------5-3-5-5-------------|

Riff 2:

  G# A         G# A        G# A    G# A   G# A E
|------------------------------------------------|
|------------------------------------------------|
|------------------------------------------------|
|------------------------------------------------|
|-6-7-7-7-7-7--6-7-7-7-7-7--6-7-7--6-7-7--6-7-9--|
|-4-5-5-5-5-5--4-5-5-5-5-5--4-5-5--4-5-5--4-5-7--|

Verse:

 A            D           G             A
lk kaljaa lantatko tai pommin laukaisette

 A               E     D      G              A
Jos kaljantuloon tulee lakko, ruumisarkkunne aukaisette

A     G                       D     A                            E          
Jos  kaljahuuruista herttte maata kansan pt voi alkaa vaikka toimimaan


Chorus:

E    D  C# B    E     D  C# B     G            A
Hyv nestj jollon p pestv on juoppolalli jee
E    D  C# B    E     D  C# B     G            A
Hyv nestj jol on p pestv ei piittaa kuka hallitsee
Show more
sponsored links
sponsored links