• Song:

    Wonderful Tonight Acoustic

  • Artist:

    Eric Clapton

=============================================================================
Wonderful Tonight
Eric Clapton
Tabbed By: Vince Hernandez
BASS TAB!!!
=============================================================================

INTRO: 2x
G|------------------------------|
D|5~---5-4~-----2----2-4-7---5~-|
A|--------5-3~---3-5------------|
E|------------------------------|

VERSE
G|--------------------------------------|
D|5~--5-4~----2----2-4~-5~-5-4----2-----|
A|-------5-3~---3-5~----------5-3---3-5-|
E|--------------------------------------|

CHORUS
G|-----------------------------------------------|
D|------2------2-4-5~-4~-2~----------2-----2-4-5-|
A|0-2-3~---3-5~-------------5~-0-2-3---3-5-------|
E|-----------------------------------------------|

VERSE2 AND CHORUS
G|--------------------------------------------------------------------|
D|5~--5-4~----2--------------2------2-4-5~-4~-2~----------2-----2-4-5-|
A|-------5-3~---3-5~-5-0-2-3~---3-5~-------------5~-0-2-3---3-5-------|
E|--------------------------------------------------------------------|

BRIDGE
G|--------------------------------------------------------|
D|-------------------2-4-5-2-------2----------------------|
A|-----0-2-3~---3-5~---------0-2-3----3-5--0-2-3-2-0---5--|
E|-3-3-----------------------------------------------3----|

THEN REPEAT IT ACCORDING TO THE SONG!!!!
TIMING AND PRACTICE!!!!GOOD LUCK!
=============================================================================
Show more