Eskimo Joe:  New York

(Intro, Chorus)
   E (022100@1) C#m (x13321@4)G#m (133111@4)B/F#e|-0----4----4----2----------------------------------------------| (x2444x@1)B|-0----5----4----4----------------------------------------------|
G|-1----6----4----4----------------------------------------------|
D|-2----6----6----4----------------------------------------------|
A|-2----4----6----2----------------------------------------------|
E|-0---------4----2----------------------------------------------|

(Verse)                         (and i know...)
   E5 (022xxx@1)G#5 (133xxx@4) B5 (x244xx@1) E5 (022xxx@1)G#5 (133xxx@4)D#5 (xx134x@1)    C#m (x13321@4)F#me|-----------------------------------4----2----------------------| (244222@1)B|-----------------------------------5----2----------------------|
G|-4---------4----4---------6--------6----2----------------------|
D|-2----6----4----2----6----8--------6----4----------------------|
A|-2----6----2----2----6----8--------4----4----------------------|
E|-0----4---------0----4------------------2----------------------|

(Bridge)              (Last Chord)
   D# (x43121@3) E*  G#m (133111@4) B (x2444x@1)     EMaj7
e|-6----7----4----2---------x------------------------------------|
B|-8----9----4----4---------4------------------------------------|
G|-8----9----4----4---------x------------------------------------|
D|-8----9----6----4---------2------------------------------------|
A|-6----7----6----2---------2------------------------------------|
E|-----------4--------------0------------------------------------|
---- Intro ----
| E  C#m  G#m  B/F# | x2

--- Verse 1 ---
E5 (022xxx@1)                              G#5 (133xxx@4)  Hey, hey, I know it wasn't New York
B5Where (x244xx@1)I lost my mind
E5 (022xxx@1)                            G#5 (133xxx@4)  Hey, hey, I know I must have left it
       D#5It (xx134x@1)was back home all the time
E5 (022xxx@1)                           G#5 (133xxx@4)  And where were you while we lay
B5So (x244xx@1)drunk that we died?
E5 (022xxx@1)                               G#5 (133xxx@4)  Hey, Hey, I know, but who could blame us
      D#5Under (xx134x@1)pressure

---- Chorus ---
      C#mAnd (x13321@4)I know
              F#mI (244222@1)should have stayed in bed
|      E (022100@1)   C#m (x13321@4)            G#m (133111@4)           B/F#| (x2444x@1)
|And I know,    I should have stayed in bed        | x2

--- Verse 1 ---
E5 (022xxx@1)                            G#5 (133xxx@4)  Hey, hey, I know it's just a toothache
B5I (x244xx@1)won't even cry.
E5 (022xxx@1)                           G#5 (133xxx@4)  Hey, hey, the candy store prescriptions
    D#5All (xx134x@1)lined up in the aisles
E5 (022xxx@1)                        G#5 (133xxx@4)  And where were you while we lay
B5Shipwrecked (x244xx@1)in denial?
E5 (022xxx@1)                     G#5 (133xxx@4)  Hey, hey, it's just a pill to help you
D#5Sleep (xx134x@1)right through the night

---- Chorus ---
      C#mAnd (x13321@4)I know
              F#mI (244222@1)should have stayed in bed
      E (022100@1)   C#m (x13321@4)            G#m (133111@4)           B/F#And (x2444x@1)I know,    I should have stayed in bed
      E (022100@1)   C#m (x13321@4)            G#m (133111@4)           D#And (x43121@3)I know,    I should have stayed in bed

--- Bridge ---
          E*
Because tomorrow's gonna be another party
    G#m (133111@4)                  BYou (x2444x@1)stay to long until the lights get lonely
      E*
Oh, tomorrow's gonna be another party
G#mWait (133111@4)too long 'til we
B (x2444x@1)                 E (022100@1)   C#mAll (x13321@4)stay out of the sun
G#m   B/F#
Sun
E (022100@1)   C#mSun (x13321@4)G#m   B/F#
Sun

---- Chorus ---
  E (022100@1)   C#m (x13321@4)            G#m (133111@4)           B/F#I (x2444x@1)know,    I should have stayed in bed
      E (022100@1)   C#m (x13321@4)            G#m (133111@4)           B/F#And (x2444x@1)I know,    I should have stayed in bed

---- Outro ----
|E            C#m (x13321@4)          G#m (133111@4)         B/F#|
|   I know, I know it wasn't New York, New York| x2

|E   C#m (x13321@4) G#m (133111@4)         B/F#|
|          New York, New York|x2
EMaj7

Show more