Showerhead - Eve6
tabbed by: ryan b

Riff A: (once)
G---------------------------------------
D---------------------------------------
A--7-7--3-3--------5--5--5--5--5--------
E--------------3-3----------------------

Riff B: (once)
G---------------------------------------
D---------------------------------------
A--7-7--3-3--------0------------------
E--------------3-3----------------------

Riff A: (3 times)
Riff B: (once)

Riff C: (once)
G-----------------------------------------------
D----------------------------------------------
A-------2222-3333----------------2222-3333-5--
E-0000--------------3333---0000----------------

Riff A: (once)
Riff B: (once)
Riff A: (3 times)
Riff B: (once)

Riff D: (3 times)
G-------------------------------------------------
D-------------------------------------------------
A-------2222-3333----------------2222-3333-5555--
E-0000--------------3333---0000------------------

Riff E: (4 times)
G---------------------------
D---------------------------
A-2-3----------------------
E------5-5-4-5-4-5-4-5---

Riff D: (3 times)
Show more