Intro:
|-----------------------------------------------------------------|
|-------------------------------------------------------8-x-7---x-|
|-9---9---x-x-x-x-5---5---x-x-x-x-4---4---x-x-x-x-7---x-----------|
|-9---9---x-x-x-x-5---5---x-x-x-x-5---5---x-x-x-x-7---x-----------|
|-7---7---x-x-x-x-7---7---x-x-x-x-5---5---x-x-x-x-5---x-----------|
|-----------------------------------------------------------------|

|-------------------------------------------------0-----------------------|
|-------------------------------------------------1-----------------------|
|-9---9---x-x-x-x-5---5---x-x-x-x-4---4---x-x-x-x-2-----------------------|
|-9---9---x-x-x-x-5---5---x-x-x-x-5---5---x-x-x-x-2-----------------------|
|-7---7---x-x-x-x-7---7---x-x-x-x-5---5---x-x-x-x-0-----------------------|
|-------------------------------------------------------------------------|

Verse 1:
|-----------------------------------------------------------------|
|-------------------------------------------------------8-x-7---x-|
|-9---9---x-x-x-x-5---5---x-x-x-x-4---4---x-x-x-x-7---x-----------|
|-9---9---x-x-x-x-5---5---x-x-x-x-5---5---x-x-x-x-7---x-----------|
|-7---7---x-x-x-x-7---7---x-x-x-x-5---5---x-x-x-x-5---x-----------|
|-----------------------------------------------------------------|

|-------------------------------------------------------0---------|
|-------------------------------------------------0---0---1-0-----|
|-9---9---x-x-x-x-5---5---x-x-x-x-4---4---x-x-x-x---0---------0---|
|-9---9---x-x-x-x-5---5---x-x-x-x-5---5---x-x-x-x-----------------|
|-7---7---x-x-x-x-7---7---x-x-x-x-5---5---x-x-x-x-----------------|
|-----------------------------------------------------------------|

|-----------------------------------------------------------------|
|-------------------------------------------------------8-x-7---x-|
|-9---9---x-x-x-x-5---5---x-x-x-x-4---4---x-x-x-x-7---x-----------|
|-9---9---x-x-x-x-5---5---x-x-x-x-5---5---x-x-x-x-7---x-----------|
|-7---7---x-x-x-x-7---7---x-x-x-x-5---5---x-x-x-x-5---x-----------|
|-----------------------------------------------------------------|

|-------------------------------------------------0-----------|
|-------------------------------------------------1-----------|
|-9---9---x-x-x-x-5---5---x-x-x-x-4---4---x-x-x-x-2-----------|
|-9---9---x-x-x-x-5---5---x-x-x-x-5---5---x-x-x-x-2-----------|
|-7---7---x-x-x-x-7---7---x-x-x-x-5---5---x-x-x-x-0-----------|
|-------------------------------------------------------------|

Chorus:
|-----------------------------------------------------------------|
|-----------------------------------------------------------------|
|-9---9---9-------4---4---4-------5---5---5-----------------------|
|-9---9---9-------4---4---4-------5---5---5-------5---5---5-------|
|-7---7---7-------2---2---2-------3---3---3-------5---5---5-------|
|-------------------------------------------------3---3---3-------|

|-----------------------------------------------------------------|
|-----------------------------------------------------------------|
|-9---9---9-------4---4---4-------5---5---5-----------------------|
|-9---9---9-------4---4---4-------5---5---5-------5---------------|
|-7---7---7-------2---2---2-------3---3---3-------5---------------|
|-------------------------------------------------3---------------|

Interlude:
|-------------------------------------------------------0---------|
|-------------------------------------------------0---0---1-0-----|
|-9---9---x-x-x-x-5---5---x-x-x-x-4---4---x-x-x-x---0---------0---|
|-9---9---x-x-x-x-5---5---x-x-x-x-5---5---x-x-x-x-----------------|
|-7---7---x-x-x-x-7---7---x-x-x-x-5---5---x-x-x-x-----------------|
|-----------------------------------------------------------------|

|-------------------------------------------------0-----------5-----------|
|-------------------------------------------------1---------------5-------|
|-9---9---x-x-x-x-5---5---x-x-x-x-4---4---x-x-x-x-2-------------------5---|
|-9---9---x-x-x-x-5---5---x-x-x-x-5---5---x-x-x-x-2-----------------------|
|-7---7---x-x-x-x-7---7---x-x-x-x-5---5---x-x-x-x-0-----------------------|
|-------------------------------------------------------------------------|

Verse 2:
|-----------------------------------------------------------------|
|-------------------------------------------------------8-x-7---x-|
|-9---9---x-x-x-x-5---5---x-x-x-x-4---4---x-x-x-x-7---x-----------|
|-9---9---x-x-x-x-5---5---x-x-x-x-5---5---x-x-x-x-7---x-----------|
|-7---7---x-x-x-x-7---7---x-x-x-x-5---5---x-x-x-x-5---x-----------|
|-----------------------------------------------------------------|

|-------------------------------------------------------0---------|
|-------------------------------------------------0---0---1-0-----|
|-9---9---x-x-x-x-5---5---x-x-x-x-4---4---x-x-x-x---0---------0---|
|-9---9---x-x-x-x-5---5---x-x-x-x-5---5---x-x-x-x-----------------|
|-7---7---x-x-x-x-7---7---x-x-x-x-5---5---x-x-x-x-----------------|
|-----------------------------------------------------------------|

|-----------------------------------------------------------------|
|-------------------------------------------------------8-x-7---x-|
|-9---9---x-x-x-x-5---5---x-x-x-x-4---4---x-x-x-x-7---x-----------|
|-9---9---x-x-x-x-5---5---x-x-x-x-5---5---x-x-x-x-7---x-----------|
|-7---7---x-x-x-x-7---7---x-x-x-x-5---5---x-x-x-x-5---x-----------|
|-----------------------------------------------------------------|

|-------------------------------------------------------0---------|
|-------------------------------------------------0---0---1-0-----|
|-9---9---x-x-x-x-5---5---x-x-x-x-4---4---x-x-x-x---0---------0---|
|-9---9---x-x-x-x-5---5---x-x-x-x-5---5---x-x-x-x-----------------|
|-7---7---x-x-x-x-7---7---x-x-x-x-5---5---x-x-x-x-----------------|
|-----------------------------------------------------------------|

Chorus:

Part 1
|-----------------------------------------------------------------|
|-----------------------------------------------------------------|
|-9---9---9-------4---4---4-------5---5---5-----------------------|
|-9---9---9-------4---4---4-------5---5---5-------5---5---5-------|
|-7---7---7-------2---2---2-------3---3---3-------5---5---5-------|
|-------------------------------------------------3---3---3-------|

Part 2
|-----------------------------------------------------------------|
|-----------------------------------------------------------------|
|-9-------9-------5-------5-----------------------7-------7-------|
|-9-------9-------5-------5-------5-------5-------7-------7-------|
|-7-------7-------3-------3-------5-------5-------5-------5-------|
|---------------------------------3-------3-----------------------|

|-----------------------------------------------------------------|
|-----------------------------------------------------------------|
|-9-------9-------5-------5-----------------------2-------2-------|
|-9-------9-------5-------5-------5-------5-------2-------2-------|
|-7-------7-------3-------3-------5-------5-------0-------0-------|
|---------------------------------3-------3-----------------------|

Bridge:
|-----------------------------------------------------------------|
|-----------------------------------------------------------------|
|-----------------------------------------------------------------|
|-----------------------------------------------------------------|
|-----------------------------------------------------------------|
|-8-7-8---8---8-7-10--10--10-10-7-5---5---5-----4-5-4-5---5---5-4-|
...................................................................

Chorus:

Part 1
|-----------------------------------------------------------------|
|-----------------------------------------------------------------|
|-9---9---9-------4---4---4-------5---5---5-----------------------|
|-9---9---9-------4---4---4-------5---5---5-------5---5---5-------|
|-7---7---7-------2---2---2-------3---3---3-------5---5---5-------|
|-------------------------------------------------3---3---3-------|

Part 2
|-----------------------------------------------------------------|
|-----------------------------------------------------------------|
|-9-------9-------5-------5-----------------------7-------7-------|
|-9-------9-------5-------5-------5-------5-------7-------7-------|
|-7-------7-------3-------3-------5-------5-------5-------5-------|
|---------------------------------3-------3-----------------------|

|-------------------------------------------------0---0---0---0---|
|-------------------------------------------------1---1---1---1---|
|-9-------9-------5-------5-----------------------2---2---2---2---|
|-9-------9-------5-------5-------5-------5-------2---2---2---2---|
|-7-------7-------3-------3-------5-------5-------0---0---0---0---|
|---------------------------------3-------3-----------------------|
Show more