Intro/Verse (0:04):
G|-----------------------------------------------------------------|
D|-----------------------------------------------------------------|
A|-6-6-6-6-6-6-6-6-2-2-2-2-2-2-2-2-6-6-6-6-6-6-6-6-4-4-4-4-4-4-4-4-|
E|-4-4-4-4-4-4-4-4-0-0-0-0-0-0-0-0-7-7-7-7-7-7-7-7-2-2-2-2-2-2-2-2-|
[x3]

Pre-Chorus (0:36):
G|---------------------------------|
D|---------------------------------|
A|---------------------------------|
E|-4-4-4-4-0-0-0-0-7-7-7-7-2-2-2-2-|
[x4]

Chorus (0:56):
G|-------------------------|
D|-------------------------|
A|-------------------------|
E|-4-44---0-0---7-77---2-2-|
[x4]

Verse/Pre-Chorus (play pre-chorus [x10]) (1:17)

Chorus (2:03)

Bridge (2:23):
G|---------------------------------|
D|---------------------------------|
A|---------------------------------|
E|-0-0-0-0-0-0-0-0-0-0-0-0-0-0-0-0-|

G|---------------------------------|
D|---------------------------------|
A|---------------------------------|
E|-2-2-2-2-2-2-2-2-2-2-2-2-2-2-2-2-|

G|-----------------|-----------------|
D|-----------------|-----------------|
A|-----------------|-----------------|
E|-4~--0~--7~--2~--|-4~--0~--7~--6~--|

G|-----------------|
D|-----------------|
A|-----------------|
E|-4~--0~--7~--2~--|
[x3]

G|-----------------|
D|-----------------|
A|-----------------|
E|-4~--0~--7~--6~--|

G|---------------------------------|
D|---------------------------------|
A|---------------------------------|
E|-4-4-4-4-0-0-0-0-7-7-7-7-2-2-2-2-|
[x2]

Chorus (3:14):
G|-------------------------|
D|-------------------------|
A|-------------------------|
E|-4-44---0-0---7-77---2-2-|
[x2]

G|---------------------------------|
D|---------------------------------|
A|---------------------------------|
E|-4-4-4-4-0-0-0-0-7-7-7-7-2-2-2-2-|
[x4]
Show more