• Song:

    Heroin Girl

  • Artist:

    Everclear

  • Album:

    Live Electric

Bass tab for "Herion Girl" - by everclear - from their
2nd album, "Sparkle & Fade". Awesome. 
Tabbed by J (fret9@hotmail.com)

(Guitar intro)
....I wish I could go

Verse/chorus:
G---------------------------------------------------------	
D---------------------------------------------------------
A-------5-5-----4-4-----5-5-------------------------------
E-0-2-2-----5-5-----2-2-----5-5-3-------------------------
  back		      Yes back in time    etc etc etc	

Bridge:
G---------------------------------------------------------	
D---------------------------------------------------------
A-----------------------------------5-5-------------------
E---2-2-0-0-2-2---2-2-0-0-2-2---5-5-----5-5---7-7-6-6-5-5-
    I heard a policeman say just another overdose...... etc

And that's pretty much it. Well done Craig Montoya.
Show more