• Song:

    Like A California King

  • Artist:

    Everclear

  • Album:

    So Much for the Aftergl...

Band: Everclear
Song: Like A California King
Album:  So Much For The Afterglow
Tabbed by: Kurt Hicks   everclear_bass@hotmail.com


Intro
G---------------------------------------
D-------------9------------------------
A---9--11--------11--9--11--7----
E------------------------------------

Other Intro Part
G-----------------------9--11
D------------9--11----------
A--9--11--------------------
E------------------------------

Verse
Play the "intro Part"  then,
G---------------------------------
D-----9--9-----9-----9--9-9
A-----7--7-----7-----7--7-7
E--0--------0------0---------

Chorus
G-------------------------
D--------------------------
A--------------------------
E--0-0-0-0-2-2-2-2-5-5-5-5---

Part When Craig Says "All those Californians coming up and..."
G---------------------------------------------------
D---------------------------------------------------
A---------------------------------------------------
E--0-0-0-0-0-0-0-0-0-0-0-0-0-0-0-0-0

I think that the whole way that he did it in concert!

kurt  
everclear_bass@hotmail.com
Show more