• Song:

    What Its Like

  • Artist:

    Everlast

Everlast - "What It's Like"
Originally Tab'd by: Jake
Reedited by -Nyte-

As usual mess with the timing, but it's easy.
Add your own change-ups and make it fun.

( repeated through the song - mute just before 
  you go to the next note )
G----------------------------------------------
D--------2-3---x-3-----------------------------
A--5---x-----------3---x-3-5---x---------------
E----------------------------------------------

( play at the end of each chorus then back to above )
G-----------------------------------------------
D-----------------------------------------------
A--5----5----5----5-----------------------------
E-----------------------------------------------


   I seen a rich man.....
G-----------------------------------------------
D-----------------------------------------------
A--5-------3---play six times then chorus ending
E------1----------------------------------------


Outro:
G-----------------------------------------------
D-----------------------------------------------
A--5------------0h1-3-----3-0h3-5---------------
E------5h3-1------------------------------------

Email NyteThorn@aol.com w/ questions comments
Show more