• Song:

    Future Shock

  • Artist:

    Evildead

  • Album:

    Annihilation of Civiliz...

Guitar I (Rythem: E A D G B E)
Guitar II (Lead: E A D G B E)

This is a correction done on my tab of this song that i published a 
long time ago. This i think is alot more correct.


Intro
Both guitars
|-----------|
|-----------|
|-----------|Lead Guitar let ring and Gtr I
|-----------|starts playing next riff.
|--5-4-3-2--|
|--3-2-1-0--|
   . . .



Riff 1

Rythem Guitar plays this riff 2 times alone then the lead guitar 
kicks in and they play this together 2 times.
|-------------------------------------------------------------------|
|-------------------------------------------------------------------|
|------------------------------9/8-----------------------------8-9--|
|------------------------------9/8-------------------------9-8-8-9--|
|------------------8-----------7/6-----------------8-------9-8-6-7--|
|--0-0-0-0-0-6-0-7---0-0-0-0-0-----0-0-0-0-0-6-0-7---0-0-0-7-6------|
   . . . .     .     . . . . .     . . . .     .     




Riff 2
                                       ____
Rythem Guitar                              \
|---------------------------------------|   \
|---------------------------------------|    |
|----------------------------------9/8--|    | 
|------------------------9-8-7-----9/8--|    |
|------------------8---7-------9-8-7/6--|    |
|--0-0-0-0-0-6-0-7---0------------------|    |
   . . . .     .     .                      /
                                           / 
Lead Guitar                                \       
|------------------------9-8-7----------|   \        
|------------------9~--8-------9-8------|    |     
|------------8~--7-----------------9/8--|    |   
|----------7-----------------------9/8--|    | 
|----------------------------------7/6--|    | 
|--0-0-0-0------------------------------|   /
   . . . .                             ____/



Riff 3

|-------------------------------------------------------------------|
|-------------------------------------------------------------------|
|-------------------------------------------------------------------|
|-------------------------------------------------------------------|
|-------------------------------------------------------------------|
|--0-0-0-0-0-0-0-0-0-0-0-0-0-0-0-0-4-3-2-1-5-4-3-2-4-3-5-3-6-5-4-3--|
   . . . . . . . . . . . . . . . . . . . . . . . . . . . . . . . .



Riff 4
 
Variation 1
|-------------------------------------------------------------------|
|-------------------------------------------------------------------|
|-------------------------------------------------------------------|
|-------------------------------------------------------------------|
|--------------7-6-------------6-5-------------5-4-----4-3-----3-2--|
|--0-0-000-000-5-4-0-0-0-0-0-0-4-3-0-0-0-0-0-0-3-2-0-0-2-1-0-0-1-0--|
   . . ... ...     . . . . . .     . . . . . .     . .     . . 
Variation 2
|-------------------------------------------------------------------|
|-------------------------------------------------------------------|
|-------------------------------------------------------------------|
|-------------------------------------------------------------------|
|--------------7-6-------------6-5-------------5-4-----4-3-----3-2--|
|--0-0-0-0-0-0-5-4-0-0-000-000-4-3-0-0-000-000-3-2-000-2-1-000-1-0--|
   . . . . . .     . . ... ...     . . ... ...     ...     ... 



Riff 5

Rythem guitar
|------------------------------------------------------------------|
|------------------------------------------------------------------|
|------------------------------------------------------------------|
|------------------------------------------------------------------|
|------------------------------------------------------------------|
|--4-3-2-1-5-4-3-2-4-3-5-3-6-5-4-3-4-3-2-1-5-4-3-2-4-3-5-3-6-5-4-3-|
   . . . . . . . . . . . . . . . . . . . . . . . . . . . . . . . .
Lead guitar        
                                 The lead guitar plays     |-7-----|
                                 exactly like the rythem   |---9-8-|
                                 guitar in this riff exept |-------|
                                 This ending   ----->      |-------|
                                                           |-------|
                                                           |-------|



Riff 6

|-----------------------------------|
|-----------------------------------|
|-----------------------------------|
|-----------------------------------|
|-----------------------------------|
|--4-3-2-1-5-4-3-1-4-3-5-3-6-5-4-3--|
   . . . . . . . . . . . . . . . .
|---------------------------------------------------|
|---------------------------------------------------|
|---------------------------------------------------|
|---------------------------------------------------|
|---------------------------------------------------|
|--2-2-2-2-2-2-2-2-6-5-4-3-7-6-5-4-6-5-7-5-8-7-6-5--|
   . . . . . . . . . . . . . . . . . . . . . . .
|----------------------------------------------------|
|----------------------------------------------------|
|----------------------------------------------------|
|----------------------------------------------------|
|----------------------------------------------------|
|--4-4-4-4-4-4-4-4-8-7-6-5-9-8-7-6-8-7-9-7-10-9-8-7--|
   . . . . . . . . . . . . . . . . . . . .  . . . . 
|-----------------------------------------------------------|
|-----------------------------------------------------------|
|-----------------------------------------------------------|
|-----------------------------------------------------------|
|-----------------------------------------------------------|
|--6-6-6-6-6-6-6-6-10-9-8-7-11-10-9-8-10-9-11-9-12-11-10-9--|
   . . . . . . . .  . . . .  .  . . .  . .  . .  .  .  . .
|------------------------------------------------------------------|
|------------------------------------------------------------------|
|------------------------------------------------------------------|
|------------------------------------------------------------------|
|------------------------------------------------------------------|
|--8-8-8-8-8-8-8-8-12-11-10-9-13-12-11-10-12-11-13-11-14-13-12-11--|
   . . . . . . . .  .  .  . .  .  .  .  .  .  .  .  .  .  .  .  .



Riff 7

|---------------|
|---------------|Before the solo.
|---------------|
|--4--4--4-4-4--|
|--4--4--4-4-4--|
|--2--2--2-2-2--|



Riff 8

|-----------------------------|
|-----------------------------|
|-----------------------------|
|-------4------4---4---4---4--|
|-------4------4---4---4---4--|
|--000002-000002-002-002-002--|
   .....  .....  ..  ..  ..



Heavy part
Riff 9

|---------------|
|---------------|
|---------------|
|--------2/3-2--|
|--2-2-2-2/3-2--|
|--0-0-0--------|
   . . .       



Riff 10
                   ____
Rythem                 \
|-------------------|   \
|-------------------|    |
|-------------------|    |
|-------------------|    |   
|-------------------|    |    
|--0-1-0-3-2-0-1-0--|    /       
   . . . . . . . .      /       
                        \  
Lead                     \        
|-------------------|    |     
|-------------------|    |  
|-------------------|    | 
|--2-3-2-5-4-2-3-2--|    |
|-------------------|    |
|-------------------|   /
   . . . . . . . . ____/ 


The order of everything

Intro
Riff1 x2
Riff2 x4
Riff3 x5
Riff4 Variation1
Riff4 Variation2 
Riff4 Variation1 
Riff4 Variation2 
Riff5
Riff2 x4
Riff4 Variation1
Riff4 Variation2
Riff4 Variation1
Riff4 Variation2
Riff6 
Riff2 x2
Riff7 x4
Riff8 x4
Riff7 x2
Riff8 x4
some riff x2 (i dont know it)
Riff8 x2
Riff9 x12
Riff10 x8
Riff9 x4
Riff10 around x60 (if fades out and in, can really count it)

so this is done. Over n' Out!
peace
Show more