#----------------------------------PLEASE NOTE---------------------------------#
#This file is the author's own work and represents their interpretation of the #
#song. You may only use this file for private study, scholarship, or research. #
#------------------------------------------------------------------------------##
(If anyone would like to use these tabs for commercial use ie. Websites etc.
                 please seek permission as copyrights are held)

Evile - Thrasher

tabbed by Daniel Jordan

Tuning - Eb Ab Db Gb

Im not a bassist, this tab i did initially to complete my guitar pro file of thrasher,
which for some unknown reason i cant post onto ultimate guitar which is why i descided 
upload the bass tab for it,
the bass tab is fairly simplistic and was pretty difficult to figure out note for note,
for help tabbing it out i used a video on youtube of someone playing thrasher on 
on bass,
the bass was then more audible and also i could see the amount of notes that were played etc.
If you listen to the song whilst learning it should be pretty straightforward,
any problems just comment and ill try and sort it out. thanks, hopefully its fairly accurate.

Mike Alexander - R.I.P - A true legend taken from this world prematurely. You will be 
missed.

        Intro

Gb|------------------|-----|
Db|------------------|-----|
Ab|------------------|-----|
Eb|-0-0---0--—0-0-0--|--0--|

Gb|------------------|-----|
Db|------------------|-----|
Ab|------------------|-----|
Eb|-0-0---0--—0-0-0--|--0--|

Gb|------------------|-----|
Db|------------------|-----|
Ab|------------------|-----|
Eb|-0-0---0--—0-0-0--|--0--|

Gb|------------------|---|
Db|------------------|---|
Ab|------------------|-1-|
Eb|-0-0---0---0-0-0--|---|

	Riff 1

Gb|-----------------|----------------|----------------|--------------|
Db|-----------------|----------------|----------------|--------------|
Ab|-----------------|----------------|----------------|-------2--3-2-|
Eb|-0000000000000000|0000000000000000|0000000000000000|0—-4-3--------|

Gb|-----------------|----------------|----------------|--------------|
Db|-----------------|----------------|----------------|--------------|
Ab|-----------------|----------------|----------------|-------2--3-2-|
Eb|-0000000000000000|0000000000000000|0000000000000000|0—-4-3--------|

     	Riff 2

Gb|----------------|---------------|------------|---------------|
Db|----------------|---------------|------------|---------------|
Ab|----------------|-4-3-2-3-2-----|------------|-4-3-2-3-2-----|
Eb|-000000000------|-----------4-3-|-000000000--|-----------4-3-|

Gb|----------------|---------------|------------|-----------------|-----|
Db|----------------|---------------|------------|-----------------|-----|
Ab|----------------|-4-3-2-3-2-----|------------|-4-3-2-3-2-------|--1--|
Eb|-000000000------|-----------4-3-|-000000000--|-----------4-3-2-|-----|

	Riff 3

Gb|-----------------|---------------------------------------------|
Db|-----------------|---------------------------------------------|
Ab|-----------------|---------------------------------------------|
Eb|-0---------------|---------------------------------------------|

Gb|-----------------|-----------------|-----------------|------------|
Db|---------------2-|---1-------------|-----3---------2-|---1--------|
Ab|---------2-1-----|-----------------|---------2-1-----|-------5--5-|
Eb|-0-0-1-0-----0---|-0---0-0-0-0-0-0-|-0-0---0-----0---|-0---0------|


	Riff 4

Gb|------------------|------------------|------------------|----------------|
Db|------------------|------------------|------------------|----------2/3-3-|
Ab|------------------|------------------|------------------|----------------|
Eb|-0000000000000000-|-0000000000000000-|-0000000000000000-|-00000000-------|

Gb|------------------|------------------|------------------|----------------|
Db|------------------|------------------|------------------|----------3/2-2-|
Ab|------------------|------------------|------------------|----------------|
Eb|-0000000000000000-|-0000000000000000-|-0000000000000000-|-00000000-------|


	Verse

Gb|------------------|------------------|------------------|--------------|
Db|------------------|------------------|------------------|--------------|
Ab|-0000000000000000-|-0000000000000000-|-0000000000000000-|-00000000-1---|
Eb|------------------|------------------|------------------|------------2-|

Gb|------------------|------------------|------------------|--------------|
Db|------------------|------------------|------------------|--------------|
Ab|-0000000000000000-|-0000000000000000-|-0000000000000000-|-00000000-1---|
Eb|------------------|------------------|------------------|------------2-|

Gb|------------------|------------------|------------------|--------------|
Db|------------------|------------------|------------------|--------------|
Ab|-0000000000000000-|-0000000000000000-|-0000000000000000-|-00000000-1---|
Eb|------------------|------------------|------------------|------------2-|

Gb|------------------|------------------|------------------|--------------|-----|
Db|------------------|------------------|------------------|--------------|-----|
Ab|-0000000000000000-|-0000000000000000-|-0000000000000000-|-00000000-1---|-3---|
Eb|------------------|------------------|------------------|------------2-|---4-|

	Chorus

Gb|-----------------|------------------|------------------|------------------|
Db|-----------------|------------------|------------------|------------------|
Ab|-----------------|------------------|------------------|------------------|
Eb|-00000000000000-1|/6666666666666666-|-6-5-0-6-3-333333-|-3-6-0-6-5-555555-|

Gb|-----------------|------------------|------------------|------------------|
Db|-----------------|------------------|------------------|------------------|
Ab|-----------------|------------------|------------------|------------------|
Eb|-00000000000000-1|/6666666666666666-|-6-5-0-6-3-333333-|-3-6-0-6-5-555555-|

Gb|-----------------|------------------|------------------|------------------|
Db|-----------------|------------------|------------------|------------------|
Ab|-----------------|------------------|------------------|------------------|
Eb|-00000000000000-1|/6666666666666666-|-6-5-0-6-3-333333-|-3-6-0-6-5-555555-|

Gb|-----------------|------------------|------------------|------------------|
Db|-----------------|------------------|------------------|------------------|
Ab|-----------------|------------------|------------------|------------------|
Eb|-00000000000000-1|/6666666666666666-|-7-6-0-7-3--------|-3-6-0-6-5--------|

Gb|-----------------|------------------|
Db|-----------------|------------------|
Ab|-7p5---6p4---3h5-|---2h4------------|
Eb|-----6-----5-----|-4-----3-4-3-1----|


	Solo 1
Gb|------------------|------------------|------------------|--------------|
Db|------------------|------------------|------------------|--------------|
Ab|-0000000000000000-|-0000000000000000-|-0000000000000000-|-00000000-1---|
Eb|------------------|------------------|------------------|------------2-|

Gb|------------------|------------------|------------------|--------------|---|
Db|------------------|------------------|------------------|--------------|---|
Ab|-0000000000000000-|-0000000000000000-|-0000000000000000-|-00000000-1---|-3-|
Eb|------------------|------------------|------------------|------------2-|---|

	Verse

Gb|------------------|------------------|------------------|--------------|
Db|------------------|------------------|------------------|--------------|
Ab|-0000000000000000-|-0000000000000000-|-0000000000000000-|-00000000-1---|
Eb|------------------|------------------|------------------|------------2-|

Gb|------------------|------------------|------------------|--------------|
Db|------------------|------------------|------------------|--------------|
Ab|-0000000000000000-|-0000000000000000-|-0000000000000000-|-00000000-1---|
Eb|------------------|------------------|------------------|------------2-|

Gb|------------------|------------------|------------------|--------------|
Db|------------------|------------------|------------------|--------------|
Ab|-0000000000000000-|-0000000000000000-|-0000000000000000-|-00000000-1---|
Eb|------------------|------------------|------------------|------------2-|

Gb|------------------|------------------|------------------|--------------|-----|
Db|------------------|------------------|------------------|--------------|-----|
Ab|-0000000000000000-|-0000000000000000-|-0000000000000000-|-00000000-1---|-3---|
Eb|------------------|------------------|------------------|------------2-|---4-|

	Chorus

Gb|------------------|------------------|------------------|------------------|
Db|------------------|------------------|------------------|------------------|
Ab|------------------|------------------|------------------|------------------|
Eb|-00000000000000-1-|/6666666666666666-|-6-5-0-6-3-333333-|-3-6-0-6-5-555555-|

Gb|------------------|------------------|------------------|------------------|
Db|------------------|------------------|------------------|------------------|
Ab|------------------|------------------|------------------|------------------|
Eb|-00000000000000-1-|/6666666666666666-|-6-5-0-6-3-333333-|-3-6-0-6-5-555555-|

Gb|------------------|------------------|------------------|------------------|
Db|------------------|------------------|------------------|------------------|
Ab|------------------|------------------|------------------|------------------|
Eb|-00000000000000-1-|/6666666666666666-|-6-5-0-6-3-333333-|-3-6-0-6-5-555555-|

Gb|------------------|------------------|------------------|------------------|
Db|------------------|------------------|------------------|------------------|
Ab|------------------|------------------|------------------|------------------|
Eb|-00000000000000-1-|/6666666666666666-|-7-6-0-7-3--------|-3-6-0-6-5--------|

	Outro Solo

Gb|------------------|------------------|------------------|------------------|
Db|------------------|------------------|------------------|------------0-2-3-|
Ab|-2222222222222222-|-2222222222222222-|------------------|------0-2-3-------|
Eb|------------------|------------------|-1111111111111111-|-1-3--------------|

Gb|------------------|------------------|------------------|------------------|
Db|------------------|------------------|------------------|------------0-2-3-|
Ab|-2222222222222222-|-2222222222222222-|------------------|------0-2-3-------|
Eb|------------------|------------------|-1111111111111111-|-1-3--------------|

Gb|------------------|------------------|------------------|------------------|
Db|------------------|------------------|------------------|------------0-2-3-|
Ab|-2222222222222222-|-2222222222222222-|------------------|------0-2-3-------|
Eb|------------------|------------------|-1111111111111111-|-1-3--------------|

Gb|------------------|------------------|------------------|------------------|
Db|------------------|------------------|------------------|------------0-2-3-|
Ab|-2222222222222222-|-2222222222222222-|------------------|------0-2-3-------|
Eb|------------------|------------------|-1111111111111111-|-1-3--------------|

Gb|------------------|------------------|------------------|------------------|
Db|------------------|----------7-8-7-8-|------------------|----------6-7-6-7-|
Ab|-0000000000000000-|-00000000---------|-7777777777777777-|-77777777---------|
Eb|------------------|------------------|------------------|------------------|

Gb|------------------|------------------|------------------|------------------|
Db|------------------|----------5-6-5-6-|------------------|------------------|
Ab|-6666666666666666-|-66666666---------|-5555555555555555-|-4444444411111111-|
Eb|------------------|------------------|------------------|------------------|

Gb|------------------|------------------|------------------|------------------|
Db|------------------|----------7-8-7-8-|------------------|----------6-7-6-7-|
Ab|-0000000000000000-|-00000000---------|-7777777777777777-|-77777777---------|
Eb|------------------|------------------|------------------|------------------|

Gb|------------------|------------------|------------------|------------------|
Db|------------------|----------5-6-5-6-|------------------|------------------|
Ab|-6666666666666666-|-66666666---------|-5555555555555555-|-4444444411111111-|
Eb|------------------|------------------|------------------|------------------|

Gb|------------------|------------------|-----------------|------------------|
Db|------------------|------------------|-----------------|------------------|
Ab|------------------|------------------|-7p5---6p4---3h5-|---2h4------------|
Eb|-00000000000000-1-|/6666666666666666-|-----6-----5-----|-4-----3-4-3-1----|
Show more