Hi people on UG. I have been working (sporadically) on this tab for couple
months. I would like to firstly note. I cannot play this up to speed, or
perfect yet. Its a very intense song. This is also my first tab. I wrote it
out while watching Ol's tutorial on youtube. However I can guarantee the
accuracy of this tab to be NEAR perfect. If there is any mistakes its VERY
few. Please let me know what you think about the tab.

Next update will include:
-solo's
-any tabbed mistakes
-grammical error's
-reformatting of the layout so its easier to read
-etc.


In order to make this tab ABSOLUTELY perfect. I would really appreciate it
if you posted mistakes in comments, or emailed me them at asmithe@live.com

Thanks, and ENJOY!

_____________________________________________________________________________
--------------------------EVILE - THRASHER-----------------------------------
-----------------------------------------------------------------------------

00:00 - 00:18 
Lead
eb|------------------|----------------------------x3|	
Bb|------------------|------------------------------|  	
Gb|----(1st time)----|------------------------------|
Db|------------------|------------------------------|
Ab|------------------|------------------------------|
Eb|-0-0-0-0-0--0-0-0-|-0-0-0-0-0-0-0-0-0-0-0--0-0-0-|
       <5>      <3>      	<11>	       <3>  
        						         >x3
Rythem							     
eb|------------------------------|------------|	            
Bb|------------------------------|------------|
Gb|------------------------------|------------|
Db|------------------------------|-2----(2)---|<- hold on x3
Ab|------------------------------|-2----(2)---| 		
Eb|-0-0-0-0-0--0-0-0--0-0-0-0-0-0|-0----(0)---|
	<5>	<3>	  <6>

Lead
eb|------------------|----------------------------x2|	
Bb|------------------|------------------------------|  	
Gb|----(1st time)----|------------------------------|
Db|------------------|------------------------------|
Ab|------------------|------------------------------|
Eb|-0-0-0-0-0--0-0-0-|-0-0-0-0-0-0-0-0-0-0-0--0-0-0-|
       <5>      <3>      	<11>	       <3>          

Lead + Rhythem
eb|------------------------------|---|				
Bb|------------------------------|---|				
Gb|------------------------------|-3-|
Db|------------------------------|-3-|
Ab|------------------------------|-1-|
Eb|-0-0-0-0-0--0-0-0--0-0-0-0-0-0|---|
       <5>      <3>       <6>
_____________________________________________________________________________

00:19 - 00:37
Lead + Rhythem
eb|------------------|----------------------------x2|	
Bb|------------------|------------------------------|  	
Gb|----(1st time)----|------------------------------|
Db|------------------|------------------------------|
Ab|------------------|------------------------------|
Eb|-0-0-0-0-0--0-0-0-|-0-0-0-0-0-0-0-0-0-0-0--0-0-0-|
       <5>      <3>            <11>            <3>	
							         >x2
Lead + Rhythem				       		 	
eb|------------------------------|			
Bb|------------------------------|
Gb|------------------------------|
Db|------------------------------|
Ab|----------------------2---3-2-|
Eb|-0-0-0-0-0-0--0-1-4-3---4-----|
        <5>   
					
1d
Lead + Rhythem
eb|----------------------------x4*|-----|
Bb|-------------------------------|-----|
Gb|-------------------------------|-----|
Db|-------------------------------|-2---|
Ab|---------2---3-2-4-3-2-3-2-----|-2---|
Eb|-0-1-4-3---4---------------4-3-|-0---|

*Lead plays above x2 then switches to:

eb|--------------------------------x2|-----|
Bb|----------------------------------|-----|
Gb|----------7----8-7-9-8-7-8-7------|-----|
Db|-5-6-10-9---10---------------10-9-|-2---|
Ab|----------------------------------|-2---|
Eb|----------------------------------|-0---|
_____________________________________________________________________________

00:38 - 00:57
Lead + Rhythem
eb|---------------------------------------------------------------x2|
Bb|---------------------------------------------------------3-3-----|		
Gb|---------------4---3-------------------10--------9---8---2-2-----|
Db|---------4\3---2---1-------------------8---9\8---7---6---0-0-----|
Ab|-----3---2\1-------------------------------7\6-----------0-0-----|/
Eb|-0-0-1-0-----0---0---0-0--0-0-0--0-0-0 --0-----0---0-------------|

{2a*}
{OPTIONAL RHYTHEM} (--CREDIT TO Mustaine1218--)
eb|---------------------------------------------------------------x2|
Bb|-----------------------------------------------------------------|		
Gb|---------------4---3-------------------5---------4---3-----------|
Db|---------4\3---2---1-------------------3---4\3---2---1---7-7-----|
Ab|-----3---2\1-------------------------------2\1-----------5-5-----|
Eb|-0-0-1-0-----0---0---0-0--0-0-0--0-0-0 --0-----0---0-----5-5-----|


Lead + Rhythem
eb|------------------------------|-------------------------------|
Bb|------------------------------|-------------------------------|
Gb|------------------------------|-------------------------------|
Db|------------------------------|-------------------------------|
Ab|----------3-------9\8---------|----------3-------8\7----------|
Eb|-0-0-0-0--1--0-0--7\6--0-0-0-0|-0-0-0-0--1--0-0--6\5--0-0-0-0-|
									   >x2
eb|------------------------------|--------------------|--------|
Bb|------------------------------|--------------------|--------|
Gb|------------------------------|---------------4/5-5|-5\4-4--| <-play on x2
Db|------------------------------|---------------2/3-3|-3\2-2--|
Ab|----------3-------9\8---------|----------3---------|--------|
Eb|-0-0-0-0--1--0-0--7\6--0-0-0-0|-0-0-0-0--1--0------|--------|
_____________________________________________________________________________

play this section ending with different bar each time

00:58 - 01:16
Lead + Rhythem
eb|------------------------------------------------------|
Bb|------------------------------------------------------|
Gb|----------------------------------------------2h3-2h3-|
Db|-2-----------2---------------3/5--------------2h3-2h3-|		       
Ab|-0--0-0-0-0--0--0-0-0-0-0-0--1/3--0-0-0-0-0-0---------|		        
Eb|------------------------------------------------------|		       >x4
! - L
& - R		                                   1     2     3       4	
eb|---------------------------------------------|-----|-----|-----|---------|
Bb|---------------------------------------------|-----|-----|-----|---------|
Gb|---------------------------------------------|-----|-----|-----|---------|
Db|-2-----------2---------------3/5-------------|-3---|!8-7!|-3---|-3---5---|
Ab|-0--0-0-0-0--0--0-0-0-0-0-0--1/3--0-0-0-0-0-0|-1-4-|&5-4&|-1-4-|-1-4-3-6-|
Eb|---------------------------------------------|---2-|-----|---2-|---2---4-|
_____________________________________________________________________________

01:17 - 01:37
Lead + Rhythem
eb|----------------------------------------------------------------|
Bb|----------------------------------------------------------------|
Gb|----------------------------------------------------------------|
Db|-2---------------2----------------------------------------------|
Ab|-2---------------2-----------3/8--------------------------------|
Eb|-0--0-0-0-0-0-0--0--0-0-0-0--1/6--6-6-6-6-6-6-6-6-6-6-6-6-6-6-6-|
           <6>           <4>                     <15>                
							            >x4
eb|------------------------------------------------| 
Bb|------------------------------------------------|
Gb|------------------------------------------------|
Db|------------------------------------------------|on x4 skip this bar
Ab|9\8---8\5---------------5/8---8\7---------------|
Eb|7\6-0-6\3--3-3-3-3-3-3--3/6-0-6\5--5-5-5-5-5-5--|
                   <6>                     <6>

Lead + Rhythem
eb|------------------------------------------------------|
Bb|------------------------------------------------------|
Gb|------------------------------------------------------|
Db|----------------------------------------------------2-|
Ab|-9\8---8\5--5/8---8\7--7p5---6p4---3h5---2h4--------2-|
Eb|-7\6-0-6\3--3/6-0-6\5------6-----5-----4-----3-0000-0-|

--------------------------------------------------------------------

{OPTIONAL Lead + Rhythem}
Lead
eb|------------------------------------------------------|
Bb|------------------------------------------------------|
Gb|------------------------------------------------------|
Db|----------------------------------------------------2-|
Ab|-9\8---8\5--5/8---8\7--------6p4---------2h4--------2-|
Eb|-7\6-0-6\3--3/6-0-6\5--0-0-0-----5-0-0-0-----3-0000-0-|

Rhythem
eb|------------------------------------------------------|
Bb|------------------------------------------------------|
Gb|------------------------------------------------------|
Db|----------------------------------------------------2-|
Ab|-9\8---8\5--5/8---8\7--7p5---------3h5--------------2-|
Eb|-7\6-0-6\3--3/6-0-6\5------6-0-0-0-----4-0-0-0-0000-0-|

_____________________________________________________________________________

01:37 - 01:47
Lead (Solo)
eb|------------------------------------------------------|
Bb|------------------------------------------------------|
Gb|------------------------------------------------------|
Db|-------will work on later, promise ;)-----------------|
Ab|------------------------------------------------------|
Eb|------------------------------------------------------|

Rhythem
eb|------------------------------------------------------|
Bb|------------------------------------------------------|
Gb|----------------------------------------------2h3-2h3-|
Db|-2-----------2---------------3/5--------------2h3-2h3-|		       
Ab|-0--0-0-0-0--0--0-0-0-0-0-0--1/3--0-0-0-0-0-0---------|		        
Eb|------------------------------------------------------|

						    1     2
eb|----------------------------------------------|-----|------|
Bb|----------------------------------------------|-----|------|
Gb|----------------------------------------------|-----|------|
Db|-2-----------2---------------3/5--------------|-3---|3---5-|
Ab|-0--0-0-0-0--0--0-0-0-0-0-0--1/3--0-0-0-0-0-0-|-1-4-|1-4-3-|
Eb|----------------------------------------------|---2-|--2---|
_____________________________________________________________________________

01:48 - 02:25
Lead + Rhythem
eb|------------------------------------------------------|
Bb|------------------------------------------------------|
Gb|----------------------------------------------2h3-2h3-|
Db|-2-----------2---------------3/5--------------2h3-2h3-|		       
Ab|-0--0-0-0-0--0--0-0-0-0-0-0--1/3--0-0-0-0-0-0---------|		        
Eb|------------------------------------------------------|		       >x4
                   
! - L
& - R		                                   1     2     3       4	
eb|---------------------------------------------|-----|-----|-----|---------|
Bb|---------------------------------------------|-----|-----|-----|---------|
Gb|---------------------------------------------|-----|-----|-----|---------|
Db|-2-----------2---------------3/5-------------|-3---|!8-7!|-3---|-3---5---|
Ab|-0--0-0-0-0--0--0-0-0-0-0-0--1/3--0-0-0-0-0-0|-1-4-|&5-4&|-1-4-|-1-4-3-6-|
Eb|---------------------------------------------|---2-|-----|---2-|---2---4-|

Lead + Rhythem
eb|----------------------------------------------------------------|
Bb|----------------------------------------------------------------|
Gb|----------------------------------------------------------------|
Db|-2---------------2----------------------------------------------|
Ab|-2---------------2-----------3/8--------------------------------|
Eb|-0--0-0-0-0-0-0--0--0-0-0-0--1/6--6-6-6-6-6-6-6-6-6-6-6-6-6-6-6-|
           <6>           <4>                     <15>                
								      >x4
eb|------------------------------------------------|
Bb|------------------------------------------------|
Gb|------------------------------------------------|
Db|------------------------------------------------|on x4 skip this bar
Ab|9\8---8\5---------------5/8---8\7---------------|
Eb|7\6-0-6\3--3-3-3-3-3-3--3/6-0-6\5--5-5-5-5-5-5--|
                   <6>                     <6>

Lead + Rhythem
eb|-----------------------|
Bb|-----------------------|
Gb|-----------------------|
Db|--------------------6--|
Ab|-9\8---8\5--5/8---8-4--|
Eb|-7\6-0-6\3--3/6-0-6----|
_____________________________________________________________________________

02:26 - 03:01
Lead (Solo)
eb|------------------------------------------------------|
Bb|------------------------------------------------------|
Gb|------------------------------------------------------|
Db|-------will work on later, promise ;)-----------------|
Ab|------------------------------------------------------|
Eb|------------------------------------------------------|

Rhythem
eb|----------------------|
Bb|----------------------|
Gb|----------------------|
Db|-4----4----4------5-4-|
Ab|-2-22-2-22-2-2222-2-2-|
Eb|----------------------|

eb|-----------------------------|	>x4
Bb|-----------------------------|
Gb|-----------------------------|
Db|-------------------------2-3-|
Ab|-3----3------------2-3-5-----|
Eb|-1-11-1-1111-1-3-5-----------|

Rhythem
eb|--------------------------------------------------------|
Bb|--------------------------------------------------------|
Gb|----------------------------------------------9/10-9/10-|
Db|-2-----------2---------------3/5--------------7/8--7/8--|		       
Ab|-0--0-0-0-0--0--0-0-0-0-0-0--1/3--0-0-0-0-0-0-----------|		        
Eb|--------------------------------------------------------|

eb|-------------------------------------------------|
Bb|-------------------------------------------------|
Gb|-----------------8/9-8/9-----------------7/8-7/8-|
Db|-9----9----------6/7-6/7-8----8----------5/6-5/6-|
Ab|-7-77-7-77777777---------6-66-6-66666666---------|
Eb|-------------------------------------------------|
								>x2
eb|------------------------------|
Bb|------------------------------|
Gb|------------------------------|
Db|-7----7--------6------3-----2-|
Ab|-5-55-5-555555-4-4444-1-111-0-|
Eb|------------------------------|
_____________________________________________________________________________

02:26 - 03:01
Lead + Rhythem
eb|---------------------------|
Bb|---------------------------|
Gb|---------------------------|
Db|-2---2---------------------|
Ab|-2---2----3/8--------------|
Eb|-0-0-0-0--1/6--6-6-6-6-6-6-|

eb|----------------------------------|
Bb|----------------------------------|
Gb|----------------------------------|
Db|--------------------------------2-|
Ab|-7p5---6p4---3h5---2h4----------2-|
Eb|-----6-----5-----4-----3--4-3-1-0-|
_____________________________________________________________________________
Show more