-----------------------------------------------------------------------------
			     Kickstarts - Example
-----------------------------------------------------------------------------

Tabbed By : Bass-Or-Nothing
e-mail: rockersn@hotmail.com

Tuning: Standard

Intro/Bridge..kinda

"You want me to come over...."

G|--------------------------------------------------------------------------|
D|--------------------------------------------------------------------------|
A|--------------------------------------------------------------------------|
E|-1-1-1-1-1-1-1-1-1-1-1-1-1-1-1-1------------------------------------------|


Chorus thing...
"Start to think it could be fizzling out, Kinda shocked..."

G|--------------------------------------------------------------------------|
D|--------------------------------------------------------------------------|
A|-5-5-5-5-5-5-5-5-5-5-5-5-5-5-5-5-3-3-3-3-3-3-3-3-3-3-3-3-3-3-3-3-1-1-1-1-1|
E|--------------------------------------------------------------------------|

G|--------------------------------------------------------------------------|
D|--------------------------------------------------------------------------|
A|-1-1-1-1-1-1-1-1-1-1-1-1-1-1-1-1-1-1-1-1-1-1-1-1-1-1-1--------------------|
E|--------------------------------------------------------------------------|

there's 16 fives and 16 three's and 32 one's... it saves you counting them!


Chorus/verse     (with distortion)

"And the love kickstarts again ,Starts again

It's the same old you, the same old me..."

G|--------------------------------------------------------------------------|
D|---3--3--3--3---5--5--5--5---8--8--8--8--8--8--8--8-----------------------|
A|--------------------------------------------------------------------------|
E|-1--1--1--1--/3--3--3--3--/6--6--6--6--6--6--6--6-------------------------|

Thats about it really enjoy!

Structure

Intro x4
Chorus x1
Chorus/Verse x4 (on the last one keep play the 6th fret octave a bit extra)
Bridge x4
Chorus x2
Pause
Chorus/Verse x4
Chorus x1

| /  slide up
| \  slide down
| h  hammer-on
| p  pull-off
| ~  vibrato
| +  harmonic
| x  Mute note
Show more