this rhythm is played throughout the whole song. the rest is lead.
eb(--000-0-0-00-0-)
bb(--222-2-2-22-2-)
gb(--222-2-2-22-2-)
db(--222-2-2-22-2-)
ab(--000-0-0-00-0-)
Eb(---------------)

verse(lead)
eb(-------------------------------------------------------------------)
bb(--5--5/8b9--9-8--8/7-7/6-6/5-5--5/8b9--9-8--8/7-7/6-10/14--14-10/5-)
gb(-------------------------------------------------------------------)
db(-------------------------------------------------------------------)
ab(-------------------------------------------------------------------)
Eb(-------------------------------------------------------------------)

chorus(lead) x8
eb(------------------)
bb(------2-----------)
gb(----2---2---2-2---)
db(--2-------2-----2-)
ab(------------------)
Eb(------------------)


piano does the lead on the second verse

chorus(lead) x8
eb(------------------)
bb(------2-----------)
gb(----2---2---2-2---)
db(--2-------2-----2-)
ab(------------------)
Eb(------------------)

solo
eb(----------------------------------------------------------)
bb(--7-----------10------------------------------------------)
gb(--------------------------6-9--6-9-9/8--------------------)
db(-----9h10-9/7----9h10-9/7--------------9--9-11/12-11-9-12-)
ab(--------------8-------------------------------------------)
Eb(----------------------------------------------------------)

solo continued
eb(--------------------------------------------)
bb(--------------------------------------------)
gb(---------------------------18--18-16--18-14-)
db(--12-14/15-14-12-15--15-14------------------)
ab(--------------------------------------------)
Eb(--------------------------------------------)

chorus(lead)
eb(--------------------------------------------------)
bb(-----19/17-----19/13-12--19/13-12---------14-10/5-)
gb(--14-------18-------------------------18----------)
db(-----------------------------------14-------------)
ab(--------------------------------------------------)
Eb(--------------------------------------------------)

last chorus(lead) x16
eb(------------------)
bb(------2-----------)
gb(----2---2---2-2---)
db(--2-------2-----2-)
ab(------------------)
Eb(------------------)
Show more