intro/chorus(lead)  (x3 add 4 for the intro)      (x1)
                   e(---------)             (----------)
                   b(---------)             (----------)
                   g(---------)             (----------)
                   d(-------5-)             (----------)
                   a(--6-66---)             (--5-55-56-)
                   D(---------)             (----------)

verse  (x2)
e(--------)(--------)(-------------------)
b(--------)(--4-----)(-------------------)
g(--------)(--3---5-)(-------------------)
d(--------)(--1---5-)(----------55555555-)
a(--------)(------3-)(----------55555555-)
D(--1---6-)(--------)(--5555555555555555-)
                      pm................
chorus
e(-----------)
b(-----------)
g(-----------)
d(--11116666-)
a(--11116666-)
D(--11116666-)

solo
e(----------------------14/13-11-------------------------------)
b(-------------------------------11-9----------------------888-)
g(--6-8888-666-8888-666---------------11-13-11-10-7-8-77-7-----)
d(-------------------------------------------------------------)
a(-------------------------------------------------------------)
D(-------------------------------------------------------------)

solo continued
e(-------------------------------------)
b(--9-11-9-----------------11----------)
g(---------12-12-13-12-13-----13-12-12-)
d(-------------------------------------)
a(-------------------------------------)
D(-------------------------------------)
Show more