Band: Exodus
Song: Bonded by Blood
Album: Bonded by Blood (1985)
Bassist: Rob McKillop
Tuning: Standard

Intro

G|-------------------|
D|-------------------|
A|-------------------|
E|-6p0h3-6p0h3-6p0h3-|

G|------------------------------|--------------------------------|
D|------------------------------|--------------------------------| x3
A|------------8p0---------5p0h7-|-------------8p0----------------|
E|-0-00000000-----0-00000-------|-0-000000000-----0-000000-6p0h3-|

G|------------------------------|--------------------------|
D|------------------------------|--------------------------|
A|------------8p0---------5p0h7-|-------------8p0----------|
E|-0-00000000-----0-00000-------|-0-000000000-----0-000000-|
 |
G|---------------------------------|
D|---------------------------------|
A|---------------------------------|
E|-6p0h3-6p0h3-6p0h3-6p0h3-3-6p0h3-|

Verse 1

G|------------------------------|--------------------------------|
D|------------------------------|--------------------------------| x3
A|------------8p0---------5p0h7-|-------------8p0----------------|
E|-0-00000000-----0-00000-------|-0-000000000-----0-000000-6p0h3-|

G|------------------------------|--------------------------|
D|------------------------------|--------------------------|
A|------------8p0---------5p0h7-|-------------8p0----------|
E|-0-00000000-----0-00000-------|-0-000000000-----0-000000-|
 |
G|-------------------|
D|-------------------|
A|-------------------|
E|-6p0h3-6p0h3-6p0h3-|

Chorus

G|---------------------------------|
D|---------------------------------| x2
A|---------------------------------|
E|-0-0-0--0-0-0--6p0h3-6p0h3-6p0h3-|

G|--------------------------|
D|--------------------------|
A|------------------------7-|
E|-0-0-0--0-0-0--6-6-5-6----|

G|------------------------------|--------------------------------|
D|------------------------------|--------------------------------| x2
A|------------8p0---------5p0h7-|-------------8p0----------------|
E|-0-00000000-----0-00000-------|-0-000000000-----0-000000-6p0h3-|

Verse 2

G|------------------------------|--------------------------------|
D|------------------------------|--------------------------------| x3
A|------------8p0---------5p0h7-|-------------8p0----------------|
E|-0-00000000-----0-00000-------|-0-000000000-----0-000000-6p0h3-|

G|------------------------------|--------------------------|
D|------------------------------|--------------------------|
A|------------8p0---------5p0h7-|-------------8p0----------|
E|-0-00000000-----0-00000-------|-0-000000000-----0-000000-|
 |
G|-------------------|
D|-------------------|
A|-------------------|
E|-6p0h3-6p0h3-6p0h3-|

Chorus

G|---------------------------------|
D|---------------------------------| x2
A|---------------------------------|
E|-0-0-0--0-0-0--6p0h3-6p0h3-6p0h3-|

G|--------------------------|
D|--------------------------|
A|------------------------7-|
E|-0-0-0--0-0-0--6-6-5-6----|

Guitar solo - Gary Holt

G|------------------------------------------------------------|
D|------------------------------------------------------------| x4
A|------------8-------------7-------------5-------------5p0h7-|
E|-0-00000000----0-00000000----0-00000000----0-00000000-------|

Guitar solo - Rick Hunolt

G|--------------------------------|
D|--------------------------------| x4
A|--------------------------------|
E|-2-2222222222222222222222-0h3-0-|

G|------------------------------|--------------------------------|
D|------------------------------|--------------------------------|
A|------------8p0---------5p0h7-|-------------8p0----------------|
E|-0-00000000-----0-00000-------|-0-000000000-----0-000000-6p0h3-|

G|------------------------------|--------------------------|
D|------------------------------|--------------------------|
A|------------8p0---------5p0h7-|-------------8p0----------|
E|-0-00000000-----0-00000-------|-0-000000000-----0-000000-|
 |
G|---------------------------------|
D|---------------------------------|
A|---------------------------------|
E|-6p0h3-6p0h3-6p0h3-6p0h3-3-6p0h3-|

Verse 3

G|------------------------------|--------------------------------|
D|------------------------------|--------------------------------| x3
A|------------8p0---------5p0h7-|-------------8p0----------------|
E|-0-00000000-----0-00000-------|-0-000000000-----0-000000-6p0h3-|

G|------------------------------|--------------------------|
D|------------------------------|--------------------------|
A|------------8p0---------5p0h7-|-------------8p0----------|
E|-0-00000000-----0-00000-------|-0-000000000-----0-000000-|
 |
G|-------------------|
D|-------------------|
A|-------------------|
E|-6p0h3-6p0h3-6p0h3-|

Chorus

G|---------------------------------|
D|---------------------------------| x2
A|---------------------------------|
E|-0-0-0--0-0-0--6p0h3-6p0h3-6p0h3-|

G|--------------------------|
D|--------------------------|
A|------------------------7-|
E|-0-0-0--0-0-0--6-6-5-6----|

Legend
------
| h = hammer-on
| p = pull-off
Show more