Fill My Little World-The Feeling

Intro

Gtrs 1+2 (Gtr 2 Electric Distorion, Gtr 1 Acoustic)

e--3-3-x-3-3--0-0-x-2-2--x-x--x-x--x-x--0-0--0-0--|
B--3-3-x-3-3--0-0-x-3-3--3-3--x-3--1-1--0-0--3-3--|
G--0-0-x-0-0--0-0-x-4-4--2-2--x-2--0-0--0-0--0-0--|
D--0-0-x-0-0--2-2-x-4-4--0-0--x-0--2-2--2-2--2-2--|
A--2-2-x-2-2--2-2-x-2-2--x-x--x-x--3-3--2-2--2-2--|
E--3-3-x-3-3--0-0-x-x-x--x-x--x-x--x-x--0-0--0-0--|

Verse 

As Intro but 0nly Guitar 1

Chorus 

As Intro 

Bridge

e--3-3------|
B--3---3----|
G--0-----0--|
D--0--------|
A--2--------|
E--3--------| (Do this loads of times)

Chorus (Quiet Just Guitar 1)

Solo

e-----------------12----------------12---------------------|
B-14b-14bp12------------------------------------14b-14bp12-|
G-14b-14bp12--14b-----14bp12--14b-------14bp12--14b-14bp12-|
D----------------------------------------------------------|
A----------------------------------------------------------|
E----------------------------------------------------------|

e------12-------------12-------------------------12-----------|
B--------------------------------15b-12-----------------------|
G--14b----14bp12--14b----14bp12----------14-14b-------14bp12--|
D-------------------------------------------------------------|
A-------------------------------------------------------------|
E-------------------------------------------------------------|

e------------------|
B-14b-14b-14b-14b--|
G-14b-14b-14b-14b--|
D------------------|
A------------------|
E------------------|

There you Go Easy Enjoy!!
Show more