• Song:

    Most Accidents

  • Artist:

    Feeling Left Out

sponsored links
hello there!
standard tuning EADGBe

if you play with the song you'll get it in no time

|-0---0---0---0---0---0---0---0------|
|--0---0---1---1---3---3---1---1-----|
|---0---0---0---0---0---0---0---0----|
|------------------------------------|
|------------------------------------|
|------------------------------------|  repeat this 4 times(i think)
      0:16-0:34

|-7-----7-------8------8-------------|
|------------------------------------|
|---0-0----0-0----0-0-----0--0-------|
|------------------------------------|
|------------------------------------|
|------------------------------------|
      0:34-0:42

questions?
e-mail me at 
gootarfreek@yahoo.com
Show more
sponsored links
sponsored links