-------------------------------------------------------------------------------
			     So Sorry - Feist
-------------------------------------------------------------------------------
Tabbed By: Valerie L. 
e-mail: v_vengeance6661@yahoo.com

Verse
G|---------------------------6-66-6-------------------|
D|---------------6-66-66-6-6--------------------------|
A|-7-77-7-9-99-9--------------------9-99-9--------7~--|
E|-----------------------------------------7-77-7-----|

Pre-Chorus "So selfish.."
G|---------------------------6-66-6--------------|
D|---------------6-66-6-66-9---------------------|
A|-7-77-7-9-99-9--------------------9-99-9-----7-|
E|-----------------------------------------7~----|

Chorus
G|------------------------|
D|------11~--11-9-9-7-77-7|
A|7~-9~-------------------|
E|------------------------|x4

Verse
G|------------------------------|
D|--------------6-66-6----------|
A|7-77-7-9-99-9--------9-99-----|
E|--------------------------7---| x4

Pre-Chorus x1
Chorus x4

Verse
G|------------------------------|
D|--------------6-66-6----------|
A|7-77-7-9-99-9--------9-99-----|
E|--------------------------7---| x4

Ending
G|---------------|
D|-11-11-9-9-7~--|
A|---------------|
E|---------------|
Show more