Intro:
  _____6x______
e|-------------|---------------|
B|-9----9----9-|---------------|
G|----10---10--|--8-8-8-8-8-5--|
D|-------------|---------------|
A|-------------|---------------|
E|-------------|---------------|

1? vez: F# - A# - C# - D#

2? vez:
Guitar 1: F# - A# - C# - D#
Guitar 2: F#* - F#/F* |8x

Verso 1:
  _________2x__________
e|----------------------|
B|-----18-14-14~-14~----|
G|-15~---------------13-|
D|----------------------|
A|----------------------|
E|----------------------|

Guitar 1: F - F# - A# - C#
Guitar 2:
  ________6x________
e|------------------|----------------------------------|
B|-9-9-9-9-9ho11po9-|-11-11-11-9-9-9-8-8-8-------------|
G|------------------|----------------------11-11-11-11-|
D|------------------|----------------------------------|
A|------------------|----------------------------------|
E|------------------|----------------------------------|

Baixo:

e|-----------------|
B|-----------------|
G|-----------------|
D|-----------------|
A|-------------4-4-|
E|-6-6-4-4-2-2-----|


Refr?o:

Guitar 1: F# - A# - C# - D# | 2x
Guitar 2: F#* - F#/F* |8x   |

Verso 2:

  _________1x__________
e|----------------------|
B|-----18-14-14~-14~----|
G|-15~---------------13-|
D|----------------------|
A|----------------------|
E|----------------------|

Guitar 1: F - F# - A# - C#
Guitar 2:
  ________6x________
e|------------------|----------------------------------|
B|-9-9-9-9-9ho11po9-|-11-11-11-9-9-9-8-8-8-------------|
G|------------------|----------------------11-11-11-11-|
D|------------------|----------------------------------|
A|------------------|----------------------------------|
E|------------------|----------------------------------|

Baixo:

e|-----------------|
B|-----------------|
G|-----------------|
D|-----------------|
A|-------------4-4-|
E|-6-6-4-4-2-2-----|


Refr?o 2:

Guitar 1: F# - A# - C# - D# | 2x
Guitar 2: F#* - F#/F* |8x   |

1? vez

e|-----------------|---------------|
B|-----------------|---------------|
G|-----------------|---------------|
D|-----------------|---------------|
A|-------------4-4-|-3/4/3--3/4/3--|
E|-6-6-4-4-2-2-----|-1/2/1--1/2/1--|

demais vezes (4):
e|-------------|------------------|
B|-------------|------------------|
G|-------------|------------------|
D|-------------|------------------|
A|-8-6-4-3-3-3-|-3/4/3--3/4/3-(4)-|
E|-6-4-2-1-1-1-|-1/2/1--1/2/1-(2)-|

Apenas na Segunda vez eh tocado o q est? entre parenteses!

Riff: (PALM MUTE)
  _____6x______
e|-------------|---------------|
B|-9----9----9-|---------------|
G|----10---10--|--8-8-8-8-8-5--|
D|-------------|---------------|
A|-------------|---------------|
E|-------------|---------------|

Refr?o:

Guitar 1: F# - A# - C# - D# | 2x
Guitar 2: F#* - F#/F* |8x   |
_____________________________________________________________________
                                                                     |
Guitar 1: F# - A# - C# - D#                                          |
Guitar 2:                                                            |
  ______6x______                                                     |
e|--------------|------------------------------------------------|   |
B|-9-9-9-8-11-9-|-11-11-11-9-9-9-8-8-8---------------------------|   |2x
G|--------------|----------------------11-11-11-11-11-13-11-(13)-|   |
D|--------------|------------------------------------------------|   |
A|--------------|------------------------------------------------|   |
E|--------------|------------------------------------------------|   |
                                                                     |
Apenas na Segunda vez eh tocado o q est? entre parenteses!
Show more