TABBED BY: theshinman77 
 
Tuning: Drop C# C# G# C# F# A# D# 
 
Key:   *   = let ring 
      {PM} = palm mute 
 
 
 
INTRO 
 
Lead Guitar (distortion,flanger) 
    {0:00}                         5x 
 D#|---------------------------------| 
 A#|---------------------------------| 
 F#|---------------------------------| 
 C#|-------10------------------------| 
 G#|----8-----8----------------------| 
 C#|-8---------------------0*--------| 
 
 
 
CHORUS 1 
 
Rhythm Guitar 
    {0:23}                         4x 
 D#|---------------------------------| 
 A#|---------------------------------| 
 F#|---------------------------------| 
 C#|-8-8-8-8-8-8-8-8-0-0-0-0-0-0-0-0-| 
 G#|-8-8-8-8-8-8-8-8-0-0-0-0-0-0-0-0-| 
 C#|-8-8-8-8-8-8-8-8-0-0-0-0-0-0-0-0-| 
 
Lead Guitar 
    {0:23}                         4x 
 D#|---------------------------------| 
 A#|---------------------------------| 
 F#|-----------------------109-9-9-9-| 
 C#|-------10--------0---------------| 
 G#|----8-----8------0-----8-7-9-9-9-| 
 C#|-8---------------0---------------| 
 
 
 
VERSE 1 
 
    {0:40} "Hand me down..."       3x 
 D#|---------------------------------| 
 A#|---------------------------------| 
 F#|---------------------------------| 
 C#|-3-3-3-3-3-3-3-3-0-0-0-0-0-0-0-0-| 
 G#|-3-3-3-3-3-3-3-3-0-0-0-0-0-0-0-0-| 
 C#|-3-3-3-3-3-3-3-3-0-0-0-0-0-0-0-0-| 
{PM} . . . . . . . . . . . . . . . . 
 
Rhythm Guitar 
    {1:02} 
 D#|-5-5-5-5-5-5-5-5-| 
 A#|-3-3-3-3-3-3-3-3-| 
 F#|-2-2-2-2-2-2-2-2-| 
 C#|-0-0-0-0-0-0-0-0-| 
 G#|-0-0-0-0-0-0-0-0-| 
 C#|-0-0-0-0-0-0-0-0-| 
 
Lead Guitar 
    {1:02} 
 D#|-----------------| 
 A#|-----------------| 
 F#|-9-9-9-9-9-9-9-9-| 
 C#|-----------------| 
 G#|-7-7-7-7-7-7-7-7-| 
 C#|-----------------| 
 
 
 
CHORUS 2 
 
Rhythm Guitar 
    {1:04} "Did you want..."       4x 
 D#|---------------------------------| 
 A#|---------------------------------| 
 F#|---------------------------------| 
 C#|-8-8-8-8-8-8-8-8-0-0-0-0-0-0-0-0-| 
 G#|-8-8-8-8-8-8-8-8-0-0-0-0-0-0-0-0-| 
 C#|-8-8-8-8-8-8-8-8-0-0-0-0-0-0-0-0-| 
 
Lead Guitar 
    {1:04}                         4x 
 D#|---------------------------------| 
 A#|---------------------------------| 
 F#|-----------------------109-9-9-9-| 
 C#|-------10--------0---------------| 
 G#|----8-----8------0-----8-7-9-9-9-| 
 C#|-8---------------0---------------| 
 
 
 
VERSE 2 
 
    {1:20} "I called you..."       2x 
 D#|---------------------------------| 
 A#|---------------------------------| 
 F#|---------------------------------| 
 C#|-3-3-3-3-3-3-3-3-0-0-0-0-0-0-0-0-| 
 G#|-3-3-3-3-3-3-3-3-0-0-0-0-0-0-0-0-| 
 C#|-3-3-3-3-3-3-3-3-0-0-0-0-0-0-0-0-| 
{PM} . . . . . . . . . . . . . . . . 
 
Rhythm Guitar 
    {1:34} 
 D#|-5-5-5-5-5-5-5-5-| 
 A#|-3-3-3-3-3-3-3-3-| 
 F#|-2-2-2-2-2-2-2-2-| 
 C#|-0-0-0-0-0-0-0-0-| 
 G#|-0-0-0-0-0-0-0-0-| 
 C#|-0-0-0-0-0-0-0-0-| 
 
Lead Guitar 
    {1:34} 
 D#|-----------------| 
 A#|-----------------| 
 F#|-9-9-9-9-9-9-9-9-| 
 C#|-----------------| 
 G#|-7-7-7-7-7-7-7-7-| 
 C#|-----------------| 
 
 
 
CHORUS 3 
 
Rhythm Guitar 
    {1:36} "Did you want..."       8x 
 D#|---------------------------------| 
 A#|---------------------------------| 
 F#|---------------------------------| 
 C#|-8-8-8-8-8-8-8-8-0-0-0-0-0-0-0-0-| 
 G#|-8-8-8-8-8-8-8-8-0-0-0-0-0-0-0-0-| 
 C#|-8-8-8-8-8-8-8-8-0-0-0-0-0-0-0-0-| 
 
Lead Guitar 
    {1:36}                         8x 
 D#|---------------------------------| 
 A#|---------------------------------| 
 F#|-----------------------109-9-9-9-| 
 C#|-------10--------0---------------| 
 G#|----8-----8------0-----8-7-9-9-9-| 
 C#|-8---------------0---------------| 
 
 
 
BRIDGE 
 
    {2:08} "I've tried..."                         4x 
 D#|-------------------------------------------------| 
 A#|-------------------------------------------------| 
 F#|-------------------------------------------------| 
 C#|-5--5--5-5--5--5-8--8--8-8--8--8-5-5-5-5-5-5-5-5-| 
 G#|-5--5--5-5--5--5-8--8--8-8--8--8-3-3-3-3-3-3-3-3-| 
 C#|-5--5--5-5--5--5-8--8--8-8--8--8-3-3-3-3-3-3-3-3-| 
 
Lead Guitar 
    {2:08}                                          4x {2:43} 
 D#|--------------------------------------------------|------------------| 
 A#|--------------------------------------------------|------------------| 
 F#|---------------------------------1010101010101010-|-1010101010101010-| 
 C#|-------7-7-------------1010-----------------------|------------------| 
 G#|----5-------5-------8-------8----8-8-8-8-8-8-8-8--|-8-8-8-8-8-8-8-8--| 
 C#|-5-------------5-8-------------8------------------|------------------| 
 
 
 
PRE-CHORUS 
 
Rhythm Guitar (clean,delay) 
    {2:45}         3x {2:57} 
 D#|-----------------|-----------------| 
 A#|-----------------|-----------------| 
 F#|-----------------|-----------------| 
 C#|-8-------0-------|-8--10---0-------| 
 G#|-8-------0-------|-8-------0-------| 
 C#|-8-------0-------|-8-------0-------| 
 
Lead Guitar (distortion,flanger) 
    {2:45}         3x {2:57} 
 D#|-----------------|---------------------| 
 A#|-----------------|---------------------| 
 F#|-----------------|-----------109-9-9-9-| 
 C#|-----------------|---------------------| 
 G#|-----------------|-----------8-7-7-7-7-| 
 C#|-----------------|---------------------| 
 
 
 
CHORUS 4 
 
Rhythm Guitar 
    {3:01}                         8x 
 D#|---------------------------------| 
 A#|---------------------------------| 
 F#|---------------------------------| 
 C#|-8-8-8-8-8-8-8-8-0-0-0-0-0-0-0-0-| 
 G#|-8-8-8-8-8-8-8-8-0-0-0-0-0-0-0-0-| 
 C#|-8-8-8-8-8-8-8-8-0-0-0-0-0-0-0-0-| 
 
Lead Guitar 
    {3:01}                         8x 
 D#|---------------------------------| 
 A#|---------------------------------| 
 F#|-----------------------109-9-9-9-| 
 C#|-------10--------0---------------| 
 G#|----8-----8------0-----8-7-9-9-9-| 
 C#|-8---------------0---------------| 
 
 
 
ENDING 
 
Rhythm Guitar 
    {3:33} "I've tri-i-i-i-i..." 
 D#|---------------------------------| 
 A#|---------------------------------| 
 F#|---------------------------------| 
 C#|-8-8-8-8-8-8-8-8-0*--------------| 
 G#|-8-8-8-8-8-8-8-8-0*--------------| 
 C#|-8-8-8-8-8-8-8-8-0*--------------| 
 
Lead Guitar 
    {3:33}               (Repeat till fade...) 
 D#|---------------------------------| 
 A#|---------------------------------| 
 F#|---------------------------------| 
 C#|-------10------------------------| 
 G#|----8-----8----------------------| 
 C#|-8---------------------0*--------|
Show more