Intro  
Guitar 1 
|----------------------------------------| 
|--------------------66------------------| 
|--------------------88------------------| 
|-----5-----------5----------------------| 
|-----5-----------5----------------------| 
|-5h7---000--5h7-------------------------| 
 
Guitar 2  
|-----12---------------------------------| 
|--10-----11--let-ring-------------------| 
|----------------------------------------| 
|----------------------------------------| 
|----------------------------------------| 
|----------------------------------------| 
 
|----------------------------------------| 
|----------------------------------------| 
|--14----15------------------------------| 
|--x-----x-------------------------------| 
|--12x6--13x4----------------------------| 
|----------------------------------------| 
 
Verse  
|------------------------------------------------------| 
|------------------------------------------------------| 
|------------------------------------------------------| 
|--------555555--999999999999--77777---55555-----------| 
|-slide--555555--999999999999--77777---55555-----------| 
|-slide--555555--999999999999--77777---55555-----------| 
 
(* = Harmonics)     
|----------------------------------------| 
|----------------------------------------| 
|----------4*----------4*----------------| 
|-44-4*-44----44-4*-44-------------------| 
|-44----44----44----44-------------------| 
|-44----44----44----44-------------------| 
 
|----------------------------------------| 
|----------------------------------------| 
|----------4*----------4*----------------| 
|-44-4*-44----44-4*-44-------------------| 
|-44----44----44----44-------------------| 
|-44----44----44----44-------------------| 
 
|--------------0--------------------------| 
|--------------0--------------------------| 
|--------------0--------------------------| 
|-7-44-4*--44--0--44-44-------------------| 
|-7-44-----44-----44-44-------------------| 
|-7-44-----44-----44-44-------------------| 
 
(Chorus) 
|-----------------------------------------| 
|-----------------------------------------| 
|-----------------------------------------| 
|-10-----7------10----12-----15----14-----| 
|-10-----7------10----12-----15----14-----| 
|-10x3---7x10---10x3--12x8---15x3--14x10--| 
 
|-----------------------------------------| 
|-----------------------------------------| 
|-----------------------------------------| 
|-10----7---9--77---9--77---9-------------| 
|-10----7------77------77-----------------| 
|-10x3--7------77------77-----------------| x 
               **      ** 
Guitar 1 
|-----------------------------------------| 
|-----------------------------------------| 
|-----------------------------------------| 
|--7--------------------------------------| 
|--7--------------------------------------| 
|--7x-------------------------------------| 
 
Guitar 2 
|------------------------------------------------------| 
|------------------------------------------------------| 
|--------------7-----------------77--9^9^9^--7---------| 
|---------1010----------------1010---------------------| 
|-77--99--------------77---99--------------------------| 
|------------------------------------------------------| 
 
Guitar 1 
|----------------------------------------| 
|--------------------66------------------| 
|--------------------88------------------| 
|-----5-----------5----------------------| 
|-----5-----------5----------------------| 
|-5h7---000--5h7-------------------------| 
 
Guitar 2  
|----------------------------------------| 
|----------------------------------------| 
|--14----15------------------------------| 
|--x-----x-------------------------------| 
|--12x6--13x4----------------------------| 
|----------------------------------------| 
 
Verse  
|------------------------------------------------------| 
|------------------------------------------------------| 
|------------------------------------------------------| 
|--------555555--999999999999--77777---55555-----------| 
|-slide--555555--999999999999--77777---55555-----------| 
|-slide--555555--999999999999--77777---55555-----------| 
 
(* = Harmonics)     
|----------------------------------------| 
|----------------------------------------| 
|----------4*----------4*----------------| 
|-44-4*-44----44-4*-44-------------------| 
|-44----44----44----44-------------------| 
|-44----44----44----44-------------------| 
 
|----------------------------------------| 
|----------------------------------------| 
|----------4*----------4*----------------| 
|-44-4*-44----44-4*-44-------------------| 
|-44----44----44----44-------------------| 
|-44----44----44----44-------------------| 
 
|--------------0--------------------------| 
|--------------0--------------------------| 
|--------------0--------------------------| 
|-7-44-4*--44--0--44-44-------------------| 
|-7-44-----44-----44-44-------------------| 
|-7-44-----44-----44-44-------------------| 
 
(Chorus) 
|-----------------------------------------| 
|-----------------------------------------| 
|-----------------------------------------| 
|-10-----7------10----12-----15----14-----| 
|-10-----7------10----12-----15----14-----| 
|-10x3---7x10---10x3--12x8---15x3--14x10--| 
 
|-----------------------------------------| 
|-----------------------------------------| 
|-----------------------------------------| 
|-10----7---9--77---9--77---9-------------| 
|-10----7------77------77-----------------| 
|-10x3--7------77------77-----------------| x2 
               **      ** 
 
Guitar 1 
|-----------------------------------------| 
|-----------------------------------------| 
|-----------------------------------------| 
|--7--------------------------------------| 
|--7--------------------------------------| 
|--7x-------------------------------------| 
 
Guitar 2 
|------------------------------------------------------| 
|------------------------------------------------------| 
|--------------7-----------------7-slide-down----------| 
|---------1010----------------1010---------------------| 
|-77--99--------------77---99--------------------------| 
|------------------------------------------------------| 
 
|-----------------------------------------| 
|-----------------------------------------| 
|-----------------------------------------| 
|--5---222--333----9-----5---222--333-----| 
|--5---222--333----9-----5---222--333-----| 
|--5x7-222--333----9x10--5x7-222--333-----| 
 
|-----------------------------------------| 
|-----------------------------------------| 
|-----------------------------------------| 
|-9----5---222--333----9-----5---222--333-| 
|-9----5---222--333----9-----5---222--333-| 
|-9x10-5x7-222--333----9x10--5x7-222--333-| 
 
|-----------------------------------------| 
|-----------------------------------------| 
|-----------------------------------------| 
|-9----5---222--333----9-----5---222--333-| 
|-9----5---222--333----9-----5---222--333-| 
|-9x10-5x7-222--333----9x10--5x7-222--333-| 
 
 
 
Guitar 1 
|----------------------------------------| 
|--------------------66------------------| 
|--------------------88------------------| 
|-----5-----------5----------------------| 
|-----5-----------5----------------------| 
|-5h7---000--5h7-------------------------| 
 
Guitar 2  
|----------------------------------------| 
|----------------------------------------| 
|--14----15------------------------------| 
|--x-----x-------------------------------| 
|--12x6--13x4----------------------------| 
|----------------------------------------| 
 
enjoy
Show more