Drop D tuning.
Tabbed by Shamu.

Intro
G|--------------------------------------------------------------|----|-----
D|--------------------------------------------------------------|----|-----
A|--------------------------------------------------------------|-x2-|-----
D|--88-88--(riff)--88-88--(riff)--55-55--(riff)--55-55--(riff)--|----|--1~~

Verse
G|-----------------------
D|-----------------------
A|--1>>------1>>---------
D|------1>>-------5>-3>--

Transition to Chorus
G|-------------------]
D|-------------------] Figure out the melody...
A|-------------------]
D|--1-1-1-1-1-1-1-1--]

Chorus
G|--------------------------------------------------------------
D|--------------------------------------------------------------
A|--------------------------------------------------------------
D|--88-88--(riff)--88-88--(riff)--55-55--(riff)--55-55--(riff)--

G|----------------------------------------------------------|-----
D|----------------------------------------------------------|-----
A|-------//13-----------------------------------------------|-----
D|--88-88------88-88--(riff)--55-55--(riff)--55-55--(riff)--|--1~~

Bridge/Outro
G|---------------------------------------------|----|--------|
D|---------------------------------------------|----|--------|
A|--------------------------------3h5----------|-x2-|--------|
D|--8-8-8-8//15\8-8-8-8--5-5-5-5-----5-5-5-5--|----|--1~~1~~|

G|--------------------------|----|----------------------|----|
D|--------------------------|----|----------------------|----|
A|--1>--3>--6>--------------|-x3-|--111--111------------|-x2-|
D|--------------5>--3>--1>--|----|------------555--555--|----|

G|--------------------------|----|-------------
D|--------------------------|----|-------------
A|--1>--3>--6>--------------|-x2-|--1~~3~~6~~~~
D|--------------5>--3>--1>--|----|-------------
Show more