Verse
G|--------------------------------------------------------------------|
D|--------------------------------------------------------------------|   
A|-3--3--3-3-3-3-3-1--1--1-1-1-1-1------------------------------------|    
D|---------------------------------2--2?2--2-2-2-2-2?-0?0--0-0--0-0-0-|

Chorus
G|----------------------------------------------|
D|----------------------------------------------|       
A|----------3-3-3-3--6-6-6-6--------------------|
D|-5-5-5-5--------------------2-2--2-2-2-2-2-2-2|

Bridge Part 1
G|----------------------------------------------------------------------------------------|   
D|----------------------------------------------------------------------------------------|
A|-3-3---3-3---3-3---3-3---3-3---3-3--3-3-3-3---3-3--3-3-3-3---3-3--3-3-3-3---3-3--3-3-3-3|
D|----------------------------------------------------------------------------------------|

Bridge Part 2
G|----------------------------------------------------------------|   
D|----------------------------------------------------------------|
A|-3-3---3-3--3-3-3-3---3-3--3-3-3-3---3-3--3-3-3-3---3-3--3-3-3-3|
D|----------------------------------------------------------------|

Bridge Part 3
G|-------------------------------------------| 
D|-------------------------------------------|
A|-3-3-3--33--6-6-6--66----------------------|
D|-----------------------5-5-5--55--0-0-0--00|

Order:			Time:

Verse 		x3	0:20
Chorus		x2	0:49
Verse 		x2	1:09
Chorus 		x4	1:29
Bridge Part 1 	x1	2:08
Bridge Part 2	x1	2:19
Bridge Part 3 	x4	2:28	
Chorus 		x4	2:48
Show more