Original Tabber:  Darir 
Corrected by: Crim 
 
>>>>> (Drop D tuning) <<<<< 
 
Intro 1: (Use up and down stroking) 
|-------------------------------------------------------------------- 
|-------------------------------------------------------------------- 
|-------------------------------------------------------------------- 
|--888-888-888-888-888-888-888-888-888-888-888-888-888-888-888-888--- 
|--888-888-888-888-888-888-888-888-888-888-888-888-888-888-888-888--- 
|--888-888-888-888-888-888-888-888-888-888-888-888-888-888-888-888--- 
     
Intro 2:                                                                          
|-------------------------------------------------------------------------- 
|-------------------------------------------------------------------------- 
|-------------------------------------------------------------------------- 
|--8-8-10-10-10-10----8-8-10-10-10-10-----4-44446---6-6-6------------------ 
|--8-8----------------8-8-----------------4-44444---4-4-4------------------ 
|--8-8----------------8-8-----------------4-44444---4-4-4------------------     
                                                                            (X2) 
|--------------------------------------------------------------------------- 
|--------------------------------------------------------------------------- 
|-------10-10-10-10-----10-10-10-10-----------------------------------------    
|--8-8----------------8-8-----------------4-44446---6-6-6--8-4--------------     
|--8-8----------------8-8-----------------4-44444---4-4-4--4-4 let ring----- 
|--8-8----------------8-8-----------------4-44444---4-4-4--4-4--------------     
                                                                                     
 
  Pre-Chorus 
|------------------------------------------------- 
|------------------------------------------------- 
|------------------------------------------------- 
|-888-888-888-888-888-888-888-888----------------- 
|-888-888-888-888-888-888-888-888----------------- 
|-888-888-888-888-888-888-888-888----------------- 
 
 
 
 
 
 
 
 
Chorus: 
|-------------------------------------------------------------------     
|-------------------------------------------------------------------     
|-------------------------------------------------------------------     
|--8-8-10-10-10-10----8-8-10-10-10-10-----4-44446---6-6-6-----------    
|--8-8----------------8-8-----------------4-44444---4-4-4-----------     
|--8-8----------------8-8-----------------4-44444---4-4-4-----------     
                               							(X2) 
|------------------------------------------------------------------   
|------------------------------------------------------------------   
|-------10-10-10-10-----10-10-10-10-------------------------------   
|--8-8----------------8-8-----------------4-44446---6-6-6--8-------  
|--8-8----------------8-8-----------------4-44444---4-4-4--4------- 
|--8-8----------------8-8-----------------4-44444---4-4-4--4------- 
   
Second Verse 
|------| 
|------| 
|------| 
|-4444-| Over & Over 
|-4444-| 
|-4444-| 
  PALM MUTED 
 
It?s sharpening 
|--------------| 
|--------------| 
|-10101010-----| 
|--8-8-8-8-----| Keep doing this over and over 
|--8-8-8-8-----| 
|--8-8-8-8-----| 
 
 
                                                                                    
ITS SHAAAAR??PENING!!!!!!!!!!! 
{PLayed on seperate guitar while last two sections are played} 
|----------------------------------------------------------------- 
|----------------------------------------------------------------- 
|----------------------------------------------------------------- 
|-888-888-888-888-888-888-888-888-444-444-444-444-444-444-444-444- X2 
|-888-888-888-888-888-888-888-888-444-444-444-444-444-444-444-444- 
|-888-888-888-888-888-888-888-888-444-444-444-444-444-444-444-444- 
 
 
										X4 
|---------------------------------------------------------------------------    
|--------------------------------------------------------------------------- 
|------10-10-10-10--------10-10-10-10---------10-10-10-10--------10-10-10-10   
|--8-8-----------------8-8-----------------8-8----------------8-8----------- 
|--8-8-----------------8-8-----------------8-8----------------8-8----------- 
|--8-8-----------------8-8-----------------8-8----------------8-8----------- 
 
 
 
|---------------------------------------------------------------------------    
|-----10-10-10-10---------10-10-10-10---------10-10-10-10--------10-10-10-10 
|---------------------------------------------------------------------------  
|--8-8-----------------8-8-----------------8-8----------------8-8----------- 
|--8-8-----------------8-8-----------------8-8----------------8-8----------- 
|--8-8-----------------8-8-----------------8-8----------------8-8-----------
Show more