Tuning: Normal/ (E,A,D,G) Low to High

G|--------------------------------|
D|--------------------------------|
A| wait for intro-----------------|
E| to end------------------------|

INTRO(the E|6 can also be played A|1, easier to jump that way)
|---------------------------------------------------------------|
|---------------------------------------------------------------|   x2
|4444444444444444-----------------------------------------------|
|----------------6666666666666666-4444444444444444-2222222222222|

VERSE
|----------|----------|----------|------------|
|----------|----------|----------|------------|    x1
|4---------|3---------|----------|------------|
|----------|----------|2---222222|2----------|

|----------|----------|----------|-----------------|
|----------|----------|----------|-----------------|   x1
|4---------|3---------|----------|-----------------|
|----------|----------|2---222222|4444444444-------|

Back to Intro and play 2 more times

|----------|----------|---------------|-----------------|
|----------|----------|---------------|-----------------|   x2
|4---------|3---------|---------------|-----------------|
|----------|----------|222-222-222-222|2----------------|

|-----------------------------------------------------------------|
|-----------------------------------------------------------------|   x1
|44444444444444-333333333333--------------4444444444444444--------|
|----------------------------2222222222222-----------------2/9/9|

Immediately go back to Intro and play 2 more times

SOLO PART
|------------------------------------------------------------55555|
|------------6----------------------------------------------------|
|44444444444--4-------------3-4-----------------------------------|
|--------------111111111111------2222222222222--444444444444------|

|---------------------------------------------------------------|
|------------6--------------------------------------------------|
|44444444444--4-------------3-4---------------------------------|
|--------------111111111111------2222222222222--4444444444444--6|
Play Intro 4 more times and end on A-4
Show more