Tabbed by: Robert Ward 
Tuning is drop D Half step down, as follows: 1-d# 2-A# 3-F# 4-C# 5-G# 6-C# 
Any questions or comments to robwardiii@hotmail.com or whatitistoburn@rock.com - thanks 
 
 
Intro/verse(clean) 
d#-------------------|-------------------| 
A#-------------------|-------------------| 
F#-------------------|-------------------|Repeat several times 
C#------7-----7---7--|------7-----7---7--|End on first half 
G#----5---5----------|----5---5----------| 
C#--0-------0---0----|--5-------5---5----| 
 
Then play this once, and Resume above riff 
d#-------------------|-------------------|-------------------| 
A#-------------------|-------------------|-------------------| 
F#-------------------|-------------------|-------------------| 
C#-/----9-----9---9--|-----11----11---11-|------7-----7---7--| 
G#-/--7---7----------|---9---------------|----5---5----------| 
C#-/7-------7---7----|-9-----9-9----9----|--5-------5---5----| 
 
Chorus(Distortion) (= - 11)(Strumming not exact) 
d#----------|--------|--------|--------|--------|--------|--------|--------|----| 
A#----------|--------|--------|--------|--------|--------|--------|--------|----| 
F#----------|7--77-77|--------|7--77-77|--------|99999999|========|77777777|----| 
C#--7--77-77|5--55-55|7--77-77|5--55-55|7--77-77|77777777|99999999|55555555|7---| 
G#--5--55-55|5--55-55|5--55-55|5--55-55|5--55-55|77777777|99999999|55555555|5---| 
C#--0--00-00|5--55-55|0--00-00|5--55-55|0--00-00|77777777|99999999|55555555|0---| 
 
Resume to Verse Riff 
 
Bridge (Palm Mute) 
d#---------|--------|--------|--------|--------|--------|--------|--------| 
A#---------|--------|--------|--------|--------|--------|--------|--------| 
F#---------|--------|--------|--------|--------|--------|--------|--------| 
C#-77777777|--------|77777777|--------|77777777|--------|--------|--------| 
G#-55555555|55555555|55555555|55555555|55555555|77777777|99999999|55555555| 
C#-00000000|55555555|00000000|55555555|00000000|77777777|99999999|55555555| 
   xxxxxxxx xxxxxxxx xxxxxxxx xxxxxxxx xxxxxxxx xxxxxxxx xxxxxxxx xxxxxxxx 
 
After this you play the chorus clean, and fade in distortion. 
 
Im not sure about the rest of the song, It gets hard to hear exactly whats going on, but this  
is pretty much it, you can basically play the chorus through the end. Questions or comments to  
robwardiii@hotmail.com, thanks.
Show more